Song name
# A B C D E F G H I J K L M N O P Q R S T U V W X Y Z

Say Hi To Your Mom - But She Beat My High Score tab

this is my first tab so shutup if it sucks.

bass part(fast):
G|-----------------0-0-0-0-0-0-0-0-----------------------------------------|
D|---------------------------------0-0-0-0-0-0-0-0-3-3-3-3-3-3-3-3---------|
A|-3-3-3-3-3-3-3-3---------------------------------------------------------|
E|-------------------------------------------------------------------------|

guitar(after first verse and chorus):
E|----------------------------1--------------------------------------------|
B|-----1----3---3------3--------1------------------------------------------|
G|------0------------2--2-----------2--------------------------------------|
D|---2-------------0--------3-----3----------------------------------------|
A|-3-----------------------------------------------------------------------|
E|--------3---3--3--------1------------------------------------------------|


thats pretty much the whole song...
Tap to rate this tab
 
# A B C D E F G H I J K L M N O P Q R S T U V W X Y Z