Song name
# A B C D E F G H I J K L M N O P Q R S T U V W X Y Z

Say Hi To Your Mom - Hooplas Involving Circus Tricks tab

im not sure if this is right it was kind of hard to figure out..

chorus(no guitar in verse or intro):
E|-------------------------------------------------------------------------|
B|-------------------------------------------------------------------------|
G|-----------------4444444444444444----------------4444444444444444--------|
D|-4444444444444444222222222222222244444444444444442222222222222222--------|
A|-2222222222222222----------------2222222222222222------------------------|
E|-------------------------------------------------------------------------|

E|-------------------------------------------------------------------------|
B|-------------------------------------------------------------------------|
G|-----------------4444444444444444----------------4-----------------------|
D|-4444444444444444222222222222222244444444444444442-----------------------|
A|-2222222222222222----------------2222222222222222------------------------|
E|-------------------------------------------------------------------------|

solo thingy:
E|-------------------------------------------------------------------------|
B|-------------------------------------------------------------------------|
G|-----4-----4-------4-----4-------4-----4-------4-----4-------------------|
D|---4-----4----4--4-----4----4--4-----4----4--4-----4---------------------|
A|-2-----2-------2-----2---------------------------------------------------|
E|-----------------------------0-----0-------0-----0-----------------------|

two more times and then play last part once and thats the song for guitar...
Tap to rate this tab
# A B C D E F G H I J K L M N O P Q R S T U V W X Y Z