Song name
# A B C D E F G H I J K L M N O P Q R S T U V W X Y Z

Say Hi - Dots On Maps tab

Say Hi - "Dots on Maps" (Acoustic) 
(Standard Tuning)


 (Intro)    (Verse One/ Verse Two)
E-------------------------------------------------------------------|
B-------------------------------------------------------------------|
G---9-------9---6-----------------9---------------------------------|
D---9-------9---6---6---7----4----7----9----------------------------|
A---7-------7---4---6---7----4----7----7----------------------------|
E-------------------4---5----2---------7----------------------------|
   (x8)    (x8)(x8)(x8)(x8)(x8)  (x8)(x8)


(Chorus) (x3)            (x1)
|-------------------|---------------|
|-------------------|---------2-----|
|---------9---------|---------0-----|
|----7----9----9----|----4----x-----| 
|----7----7----9----|----4----x-----|
|----5---------7----|----2----x-----|
    (x8) (x4) (x4)     (x6) (x6)

(Verse One)
Remarkable as it seems, turns out the nap was much shorter 
than you wanted to believe.  We we're only in Dakota,
dots on maps en route to bigger cities.
And the ebbs of traffic pattern recede, and we played our only record
front to back infinity.  When its dark like this all that I can see
is the whites of her green eyes.

(Chorus)
And she said "oh, tell me is this all there's gonna be?"
And I said "oh, I don't know just how it's gonna be."
She said "oh, tell me is this all there's gonna be?"
There's a trigger somewhere lets pull it.
There's a trigger somewhere lets pull it.

(Verse Two)
Thinking back to all the days when we were kids, playing games
And dropping hints and getting wide eyed at a glimpse.
But now you're 'bout as turned on as a bottom feeder likes the sun.
And the twist has finally gone off with the rest,
like some long extinct big creature that we've never seen in flesh.
And You suppose that every reigning champ eventually meets his better.

(Chorus)
And she said "oh, tell me is this all there's gonna be?"
And I said "oh, I don't know just how it's gonna be."
She said "oh, tell me is this all there's gonna be?"
There's a trigger somewhere lets pull it.
There's a trigger somewhere lets pull it.

(Intro/Outro)
Tap to rate this tab
 
# A B C D E F G H I J K L M N O P Q R S T U V W X Y Z