Song name
# A B C D E F G H I J K L M N O P Q R S T U V W X Y Z

Say No More - Tell Me What Youre Thinking tab

www.myspace.com/saynomore

Say No More - Tell Me What You're Thinking

Intro 
|------------------------10------------------------------------|
|-8------10------12---------12-----8------10------3------3-----|
|---------------------------------------------------0------0---| x2
|---5-------7-------9----------------5-------7--------0------0-|
|-7---7--9----9--10---10-------10--7---7--9----9---------------|
|-------------------------------------------------3------3-----|

Verse
|------------------------10------------------------------------|
|-8------10------12---------12-----8------10------3------3-----|
|---------------------------------------------------0------0---| x2
|---5-------7-------9----------------5-------7--------0------0-|
|-7---7--9----9--10---10-------10--7---7--9----9---------------|
|-------------------------------------------------3------3-----|

Chorus
|---------------------------------------------------|
|-----3-----------3------------3------------3-------|
|-------0---0-------0---0--------0---0--------0---0-|
|---------0-----------0------------0------------0---|
|-3-3---------3-3-----------------------------------|
|--------------------------3-3----------0-0---------|

|----------------------------------------------------------------|
|-----3-----------3------------3------------3------------3-------|
|-------0---0-------0---0--------0---0--------2---2--------2---2-|
|---------0-----------0------------0----0-0-----0----0-0-----0---|
|-3-3---------3-3------------------------------------------------|
|--------------------------3-3-----------------------------------|


Verse x2


Chorus


Verse
|------------------------10------------------------------------|
|-8------10------12---------12-----8------10------3------3-----|
|---------------------------------------------------0------0---| 
|---5-------7-------9----------------5-------7--------0------0-|
|-7---7--9----9--10---10-------10--7---7--9----9---------------|
|-------------------------------------------------3------3-----|

|------------------------10----------------------|
|-8------10------12---------12-----8----10-----3-|
|----------------------------------------------0-| 
|---5-------7-------9--------------------------0-|
|-7---7--9----9--10---10-------10--7-----9-----2-|
|----------------------------------------------3-|


Please Rate!!
Tap to rate this tab
# A B C D E F G H I J K L M N O P Q R S T U V W X Y Z