Song name
# A B C D E F G H I J K L M N O P Q R S T U V W X Y Z

Say No More - Tell Me What Youre Thinking tab

This is how Peter Pedrazzi of Say No More played it.

Intro 
|-----------------------10-------------------------------------|
|-8------10------12---------12-----8------10-------3-----3-----|
|---0-------0-------0----------0------0------0-------0-----0---| x2
|------------------------------------------------------0-----0-|
|-7---7--9----9--10---10------------7---7--9----9--------------|
|--------------------------------------------------3-----------|

Verse

|-----------------------10-------------------------------------|
|-8------10------12---------12-----8------10-------3-----3-----|
|---0-------0-------0----------0------0------0-------0-----0---| x2
|------------------------------------------------------0-----0-|
|-7---7--9----9--10---10------------7---7--9----9--------------|
|--------------------------------------------------3-----------|

Chorus

|---------------------------------------------------|
|-----3-----------3------------3------------3-------|
|-------0---0-------0---0--------0---0--------0---0-|
|---------0-----------0------------0------------0---|
|-3-3---------3-3-----------------------------------|
|--------------------------3-3----------0-0---------|

|----------------------------------------------------------------|
|-----3-----------3------------3------------3------------3-------|
|-------0---0-------0---0--------0---0--------2---2--------2---2-|
|---------0-----------0------------0----0-0-----0----0-0-----0---|
|-3-3---------3-3------------------------------------------------|
|--------------------------3-3-----------------------------------|


Verse


Chorus


Verse

|-----------------------10-------------------------------------|
|-8------10------12---------12-----8------10-------3-----3-----|
|---0-------0-------0----------0------0------0-------0-----0---| x2
|------------------------------------------------------0-----0-|
|-7---7--9----9--10---10------------7---7--9----9--------------|
|--------------------------------------------------3-----------|

|-----------------------10-------------------------------------|
|-8------10------12---------12-----8------10-------3-----------|
|---0-------0-------0----------0-------------------0-----------| x2
|--------------------------------------------------0-----------|
|-7---7--9----9--10---10-----------7-------9-------0-----------|
|--------------------------------------------------3-----------|
Tap to rate this tab
# A B C D E F G H I J K L M N O P Q R S T U V W X Y Z