Guitaretab - guitar tabs
Song name
# A B C D E F G H I J K L M N O P Q R S T U V W X Y Z
Home / S / Saybia / Angel tab

Saybia - Angel tab

####Saybia - Angel solo TAB, by oodava.####


This is the little solo Sebastian SandstrÝm plays in the song "Angel". I am pretty sure 
is correct. Just a few notes about the tab.

#Any time you see two notes like this: 12--12--12--12--|
#Play a simple DuDu type strum for it. ----------------|
# It's kind of hard to tab out strums! 10--10--10--10--|


#If you see strum ^, look at the notes right above the arrow, and use a patter that 
right for it. (Like a DuDuD or DuDuDuD....)


Solo:

Play this 2x.
E-------------------------------------------------------------------|
B-------------------------------------------------------------------|
G-14b16r14---14------14~---14~14/21--21--21--21--21--21--21---------|
D-------------------------------------------------------------------|
A-12---------12---12-----12---12/19--19--19--19--19--19--19---------|
E-------------------------------------------------------------------|
[ Tab from: http://www.guitaretab.com/s/saybia/159685.html ]
                                Strum^^^
2nd part.
E-------------------------------------------------------------------|
B-------------------------------------------------------------------|
G-14b16r14--14--14--14--14--14b16-12-14~-----14-14b16-12-14---------|
D-------------------------------------------------------------------|
A-12--------12--12--12--12-----------12--12--------------12---------|
E-------------------------------------------------------------------|
       Strum^
(Use a kind of DuDuDu patter until "14b" part)


E-----------------------------------------------------------------------|
B-----------------------------------------------------------------------|
G----14-14b16-12-14~----14-14b16p12--14--14-14/17-17/19-19--21--22~-----|
D-----------------------------------------------------------------------|
A-12-------------12~-----------------12--12-12/15-15/17-17--19--20~-----|
E-----------------------------------------------------------------------|


There you go.  Enjoy...   :)
Related for Angel tab