Song name
# A B C D E F G H I J K L M N O P Q R S T U V W X Y Z

Saybia - Day After Tomorrow tab

-------------------------------------------------------------------------------
			     The Day after tomorrow - Saybia
-------------------------------------------------------------------------------
Tabbed by: Marc (sheepy) penny
Email: marc:thebathroom.plus.com

Tuning: Standard


e|--2--2--0--0--|
B|--3--2--2--0--|
G|--4--0--2--1--|
D|--4--0--2--2--|
A|--2--2--0--2--|
E|--2--3--0--0--|
   Bm          G           A           E
e|-------2-----------2-----------0-----------0--------------|
B|----------3-----------2-----------2-----------0-----------|
G|----4-----------0-----------2-----------1-----------------|
D|-4-----------0-----------2-----------2--------------------|
A|----------------------------------------------------------|
E|----------------------------------------------------------|

===============================================================================

just play that a couple of times, you'll get it =P
Tap to rate this tab
# A B C D E F G H I J K L M N O P Q R S T U V W X Y Z