Guitaretab - guitar tabs
Song name
# A B C D E F G H I J K L M N O P Q R S T U V W X Y Z

Saybia - Haunted House On The Hill tab

SAYBIA - THE HAUNTED HOUSE ON THE HILL
(THESE ARE THE DAYS)
Tabbed by Jonas Krog alias Ejlstrup1 

The song is played with a capo on the 2.fret. The notes, which are in the parentheses, are played 
by the piano, synthesizer, bass etc. There's also a 12-stringed guitar, which plays almost 
the same as the 6-stringed. Have fun!

If you like this tab, please rate it!

Capo 2.fret

Chords:
     G      Cadd9    Am     C/g     Em       A      H7      Em6
e|---3---|---3---|---0---|---3---|---0---|---0---|---2---|---0---|
B|---3---|---3---|---1---|---1---|---0---|---2---|---0---|---2---|
G|---0---|---0---|---2---|---0---|---0---|---2---|---2---|---0---|
D|---0---|---2---|---2---|---2---|---2---|---2---|---1---|---2---|
A|---2---|---3---|---0---|---3---|---2---|---0---|---2---|---2---|
E|---3---|---X---|---X---|---0---|---0---|---X---|---X---|---0---|	

Intro:

e|-----------------------------3-------------------------------------|
B|-----------------------------3-------------------------------------|
G|-------------0---------------0-------------0-------------------0---|
D|-------0^2-------2-------0---0-------0^2-------2-------------0-----| 
A|---3-----------------2-------2---0---------------------0^2---------|
E|-----------------------------X---------------------3---------------|
The 12-stringed guitar plays this slide together with the 6-stringed 
after the finger play above. The 6-stringed plays G and Cadd9.

e|------------------3--------------------------------3/5---3---|
B|------------------3--------------------------------3/5---3---|
G|---a G-chord------0------when the Cadd9 enters-----0/0---0---|
D|------------------0--------------------------------2/4---0---|
A|------------------2--------------------------------3/5---2---|
E|------------------3--------------------------------X-X---3---|	

Verse 1:

G                     Cadd9     G                   Cadd9 
(A)                   (Dadd9)  (A)                 (Dadd9)
Get it all, get enough    -     giving in, giving up
      Am                    C/g
     (Hm)                   (D)
We're children in the wind, letting sorrow in
G                    Cadd9     G                      Cadd9
A)                  (Dadd9)   (A)                    (Dadd9)
Mystify a simple life     -    amplify a simple fight
      Am                      C/g
     (Hm)                     (D)
We're creatures of the night - dodging rays of light

Em
(F#m)
kings will rise and kings will fall
   A
  (H)
I wish that we could lose it all

Chorus:
[ Tab from: http://www.guitaretab.com/s/saybia/55960.html ]
G   H7    Em           A
(A)(C#7) (F#m)        (H)
I   know, I'm forgiven but still
         Am7                      Em6
        (Hm7)                    (F#m6)  
life is waiting for me, while I'm waiting for you
            G       Cadd9       G       Cadd9
           (A)     (Dadd9)     (A)      (Dadd9)
to carry me home

Verse 2:

G                          Cadd9  G                              Cadd9                     
(A)                       (Dadd9)(A)                            (Dadd9)
So it's time to let it go    -    choose a path and take it slow
        Am                       C/g
       (Hm)                      (D)
we were lovers let astray, let's try and find a way
Em
(F#m)
back to where we all hope to be
A
(H)
tell me if you disagree

Chorus:

G   H7    Em           A
(A)(C#7) (F#m)        (H)
I   know, I'm forgiven but still
        Am7                       Em6
       (Hm7)                     (F#m6)  
life is waiting for me, while I'm waiting for you
            G          H7    Em           A  
           (A)        (C#7) (F#m)        (H)
to carry me home - I   know, I'm forgiven but still

        Am7                       Em6
       (Hm7)                     (F#m6)  
life is waiting for me, while I'm waiting for you
            G
           (A)
to carry me home


        Cadd9       G       Cadd9  
       (Dadd9)     (A)     (Dadd9)

G       Cadd9       G       Cadd9  
A)      (Dadd9)    (A)     (Dadd9)

G       Cadd9       G       Cadd9   
A)      (Dadd9)    (A)      (Dadd9)

G       Cadd9       G                  Cadd9        G   
A)     (Dadd9)     (A)                (Dadd9)      (A)
                           The haunted house on the hill

G       Cadd9       G                  Cadd9        G   
A)     (Dadd9)     (A)                (Dadd9)      (A)
                           The haunted house on the hill
G       Cadd9       G                  Cadd9        G   
A)     (Dadd9)     (A)                (Dadd9)      (A)
                           The haunted house on the hill

First the intro is played again. Then a change of tempo and some trumpets enter:

e|-----------------------------3-------------------------------------|
B|-----------------------------3-------------------------------------|
G|-------------0---------------0-------------0-------------------0---|
D|-------0^2-------2-------0---0-------0^2-------2-------------0-----| 
A|---3-----------------2-------2---0---------------------0^2---------|
E|-----------------------------X---------------------3---------------|

G       Cadd9       G     X 3  
A)     (Dadd9)     (A)           


There is a small break between the last Cadd9 and the G. The song ends on the G.
Related for Haunted House On The Hill tab