Song name
# A B C D E F G H I J K L M N O P Q R S T U V W X Y Z

Saydie - Powder tab

Artist:Saydie
Album:Saydie
Song:Powder

x - muted note
. - palm mute
/ - slide
p - pull-off
h - hammer-on
~ - let ring

Dropped D Tuning

Gtr 1 2x                                            Gtr 2
e|---------------------------------7-7-7-8-8-9---- -----------------------|   
B|------------------------------------------------ -----------------------|  
G|------------------------------------------------ -----------------------|
D|------------------------------------------------ -5-5--x-x-x-x--5-5-----|    
A|------7-8-8-7-6-3-5-----7-8-8-7----------------- -5-5--x-x-x-x--5-5-----|   
D|--5-5---------------5-5------------------------- -5-5--x-x-x-x--5-5-----|   
    . . . . . . . . . . . . . . 

Intro Pt 2

Gtr 1
e|---------------------------------7-7-7-8-8-9---|    
B|-----------------------------------------------|   
G|-----------------------------------------------|
D|-----------------------------------------------|      
A|------7-8-8-7-6-3-5-----7-8-8-7----------------|     
D|--5-5---------------5-5------------------------|    
    
Gtr 2
e|-----------------------------------------------|    
B|-----------------------------------------------|   
G|-----------------------------------------------|
D|---------------------------------7-7-7-8-8-9---|      
A|------7-8-8-7-6-3-5-----7-8-8-7----------------|    
D|--5-5---------------5-5------------------------| 


preverse
Gtr 1                                           Gtr 2
e|--------------------------------------------- ------------|    
B|--------------------------------------------- ------------|  
G|--------------------------------------------- ------------|
D|--------------------------------------------- -5-xxxx-5---|    
A|-----------7-xx-8-7-6-xxxx-5----------8-xx-7- -5-xxxx-5---|   
D|--5-5-xxx--------------------5-5-xxx--------- -5-xxxx-5---|   
    

Verse
  
Gtr 1
e|--------------------------------7-7-7-8-8-9----|    
B|-----------------------------------------------|   
G|-----------------------------------------------|
D|-----------------------------------------------|      
A|------7-8-8-7-6-3-5-----7-8-8-7----------------|     
D|--5-5---------------5-5------------------------|
    . . . . . . . . . . . . . . . 

Gtr 2

E|--/5-5-------------------------/5-5------------------------|
B|-------6-6-----6-6-7-7-------------6-6-----6-6-7-7---------|
G|----------7-7----------5-5-7-7---------7-7---------5-5-7-7-|
D|-----------------------------------------------------------|
A|-----------------------------------------------------------|
E|-----------------------------------------------------------|


Chorus

e|------------------------------------------------------|
B|------------------------------------------------------|
G|------------------------------------------------------|
D|--444/8-7-6--4/666-7~-77--444/8-7-6--4/666-7x7x7x7----|
A|--444/8-7-6--4/666-7~-77--444/8-7-6--4/666-7x7x7x7----|
D|--444/8-7-6--4/666-7~-77--444/8-7-6--4/666-7x7x7x7-----|


REPEAT VERSE 4x
THEN CHORUS

gtr 1
  
   walking on you..........
e|---------------------------------------------------------------------|     
B|---------------------------------------------------------------------|   
G|--6---7---8---7----4---7---8---7---6---7---8--7---6---7---8--7x7x7---|
D|--6~--7~--8~--7~---6~--7~--8~--7~--6~--7~--8~-7~--6~--7~--8--7x7x7---|   
A|--4~--5~--6~--5~---4~--5~--6~--5~--4~--5~--6~-5~--4~--5~--6--5x5x5---|
D|---------------------------------------------------------------------|

gtr 2 ( do this fast)
E|---------------------------------------------------------------------|
B|--6p4---6p4---6p4---6p4---6p4---6p4---6p4--6p4---6p4---6p4---6p4--6b-|
G|------5-----5-----5-----5-----5-----5----5-----5-----5-----5-----5---|
D|---------------------------------------------------------------------|
A|---------------------------------------------------------------------|
E|---------------------------------------------------------------------|


VERSE 3
             
              the darkness like a shroud that draws carefully....... 

gtr 1                                             gtr 2
e|---------------------------------------------   ----------------|    
B|---------------------------------------------   ----------------|  
G|---------------------------------------------   ----------------|
D|---------------------------------------------   ----------------|    
A|---------------------------------------------   -5x5x5x5x5-555--|
D|--5x5x5x5x5b-888776--------------------------   -5x5x5x5x5-555--|
             


REFRAIN

  gtr 1 (go on push me down the gutter)  gtr 2 
e|-------------------------------------  -----------------|     
B|-------------------------------------  -6p4---6p4---6p4-| 
G|--6666666666/8888888888--------------  -----5-----5-----|
D|--6666666666/8888888888--------------  -----------------| repeat as many times
A|--4444444444/6666666666--------------  -----------------|
D|-------------------------------------  -----------------|
                   

REPEAT VERSE 3 RIFF THEN REFRAIN
BRIDGE UNDER CONSTRUCTION


OUTRO

e|---------------------------------------------   ----------------|    
B|---------------------------------------------   ----------------|  
G|---------------------------------------------   ----------------|
D|---------------------------------------------   ----------------|    
A|---------------------------------------------   -5x5x5x5x5-555--|
D|--5x5x5x5x5b-888776--------------------------   -5x5x5x5x5-555--|
            


~end


Powder
look down they're all crawling 
wont you look here? 
im dying can't you see? 
come down i've been waiting for you 
won't you come here 
i've been waiting 
hold me until i'm gone 
say you'll never sober me up 
i hear my name as you call 
can you feel my ghost walking on you 

look down they're all over me 
watch my skin its 
slowly turning purple 
help me, i've been waiting for you 
won't you fix me now 
i've been waiting 

hold me until im gone 
say you'll never sober me up 
i hear my name as you call 
can you feel my ghost walking on you 

the darkness like a shroud that draws carefully 
around my twisted memories 
falling into alcoholic seas 
go on push me down the gutter 
go on push me down the gutter 

where i lay awake amongst the little clowns 
never look back at me 
coz your eyes are making me cry 
go on push me down the gutter 

now i want you to come with me 
the darkness like a shroud that draws carefully 
around my twisted memories 
falling into alcoholic seas 
go on push me down the gutter 
go on push me down the gutter 
go on...


   
Tap to rate this tab
 
# A B C D E F G H I J K L M N O P Q R S T U V W X Y Z