Saydie - Lie tab

Title: "LIE"
Artist: Saydie
Album: "?"
Tabbed by: Ace Oliver C. Valmores
Facebook Account : ace_2691@yahoo.com
Tuning : Drop D


=============================================================================


Intro :

Guitar 1 - F (00:17-00:28secs)pde nyu dn sabay 2..kung kaya nyu...

e----------------|
B----------------|
G----------------|
D---33-----------|
A---33-(break----|
D---33-----------|

Guitar 2

e---------------------------|
B--1-1----------------------|
G------2-2-----2-2-----3-2-0|
D----------3-3-----3-3------|
A---------------------------|
D---------------------------|

=============================================================================

2nd part of Intro : pakinggn lng ung Stramming po ng Lie.. makukuha nyo dn po..

Guitar 1 : F-C-D-Bb

e----------------|
B----------------|
G----------------| F
D---33-----------|
A---33-----------|
D---33-----------|

e----------------|
B----------------|
G---55-----------|
D---55-----------| C
A---33-----------|
D----------------|

e----------------|
B----------------|
G---77-----------|
D---77-----------| D
A---55-----------|
D----------------|


e----------------|
B----------------|
G---33-----------|
D---33-----------| Bb
A---11-----------|
D----------------|

Guitar 2

e---------------------------|
B--1-1----------------------|
G------2-2-----2-2-----3-2-0|
D----------3-3-----3-3------|
A---------------------------|
D---------------------------|

============================================================================

1st Refrain : Guitar 1 Pakinggan lang po ng mabuti.. makukuha nyo 2..

e----------------|
B----------------|
G----------------|
D---33-----------|
A---33-(break----|
D---33-----------|

Guitar 2

e---------------------------|
B--1-1----------------------|
G------2-2-----2-2-----3-2-0|
D----------3-3-----3-3------|
A---------------------------|
D---------------------------|

I see the sadness in your soul
I want to apologize
But how can i come in it痴 locked my dear
The angels are dead come on let痴 fly before the
Green fades away...

=============================================================================

Chorus : Guitar 1 : F-C-D-Bb

e----------------|
B----------------|
G----------------| F
D---33-----------|
A---33-----------|
D---33-----------|

e----------------|
B----------------|
G---55-----------|
D---55-----------| C
A---33-----------|
D----------------|

e----------------|
B----------------|
G---77-----------|
D---77-----------| D
A---55-----------|
D----------------|


e----------------|
B----------------|
G---33-----------|
D---33-----------| Bb
A---11-----------|
D----------------|

Come on f*ck me to sleep
And tell me that we値l be okay
Come on lie to me and tell that we値l live again

=============================================================================

2nd Refrain : Guitar 1 Pakinggan lang po ng mabuti.. makukuha nyo 2..

e----------------|
B----------------|
G----------------|
D---33-----------|
A---33-(break----|
D---33-----------|

Guitar 2

e---------------------------|
B--1-1----------------------|
G------2-2-----2-2-----3-2-0|
D----------3-3-----3-3------|
A---------------------------|
D---------------------------|

Hit me in i値l take you far
Your eyes are so pretty
Can you still see me?
Look! my tears are freezing
The devils are dancing
Come on let痴 fly before the green fades away

=============================================================================

Chorus : Guitar 1 : F-C-D-Bb

e----------------|
B----------------|
G----------------| F
D---33-----------|
A---33-----------|
D---33-----------|

e----------------|
B----------------|
G---55-----------|
D---55-----------| C
A---33-----------|
D----------------|

e----------------|
B----------------|
G---77-----------|
D---77-----------| D
A---55-----------|
D----------------|


e----------------|
B----------------|
G---33-----------|
D---33-----------| Bb
A---11-----------|
D----------------|

Come on f*ck me to sleep
And tell me that we値l be okay
Come on lie to me and tell that we値l live again

=============================================================================

Lead : Guitar 1 i think gn2 un.. peo kau n po bahala.. (2:17-2:27secs)

e----------------|
B----------------|
G----------------|
D---33-----------|
A---33-(break----|
D---33-----------|

Guitar 2


e-----------------------------|
B--1--------------------------|
G------2-------2-------3-2-0--|
D----------3-------3---------3|
A-----------------------------|
D-----------------------------|

=============================================================================

Bridge :

Guitar 1

e----------------|
B----------------|
G----------------|
D---33-----------|
A---33-(break----|
D---33-----------|

Guitar 2

e----------------------------|
B--1-1-----------------------|
G------2-2-----2-2-----3-2-0-|
D----------3-3-----3-3------3|
A----------------------------|
D----------------------------|

All the needles in your head are under my bed
I wanna fall into an deep sleep
Please!it痴 getting too heavy
I beg of you

=============================================================================

2nd Chorus : Guitar 1 : F-C-D-Bb

e----------------|
B----------------|
G----------------| F
D---33-----------|
A---33-----------|
D---33-----------|

e----------------|
B----------------|
G---55-----------|
D---55-----------| C
A---33-----------|
D----------------|

e----------------|
B----------------|
G---77-----------|
D---77-----------| D
A---55-----------|
D----------------|


e----------------|
B----------------|
G---33-----------|
D---33-----------| Bb
A---11-----------|
D----------------|

lie to me.....I beg you....lie to me.... "FAKE IT"

=============================================================================

Breakdown : F-G#m/G do it (x16)

e----------------|
B----------------|
G----------------| F
D---33-----------|
A---33-----------|
D---33-----------|

e----------------|
B----------------|
G----------------|
D----5/4---------|
A----5/4---------|
D----5/4---------|

=============================================================================


Chorus : Guitar 1 : F-C-D-Bb... ganyan pa din po hnggng closing...

e----------------|
B----------------|
G----------------| F
D---33-----------|
A---33-----------|
D---33-----------|

e----------------|
B----------------|
G---55-----------|
D---55-----------| C
A---33-----------|
D----------------|

e----------------|
B----------------|
G---77-----------|
D---77-----------| D
A---55-----------|
D----------------|


e----------------|
B----------------|
G---33-----------|
D---33-----------| Bb
A---11-----------|
D----------------|

Come on f*ck me to sleep
And tell me that we値l be okay
Come on lie to me and tell that we値l live again

Closing Chords : Bb-G-G#m-F...

============================================================================

sundun lng po LAHAT at sbyn mo dn ng KANTA nla.. mkukuha mo po agad...
95% ang kuha ko dyn.. ung bandng ENDING hdi ko po alam.. kse my EFFECTS na ginamit..or 
piano ata un..

=============================================================================
Tap to rate this tab
 
# A B C D E F G H I J K L M N O P Q R S T U V W X Y Z