Song name
# A B C D E F G H I J K L M N O P Q R S T U V W X Y Z

Saydie - Vylet tab

Vylet Tab by Saydie, www.Ultimate-Guitar.Com

Tabbed by: Jerahmeel Vincent Acebuche
Email: wind_chime18@yahoo.com

Hey guys paki rate na lang poh ha.. sure po ako dito sabayan nyo na lang yung tugtog.. 
standard po ung tono ng guitar natin jan hehe..

Tuning: Drop D, regular tuning

. Palm mute
/ Slide
\ Slide back
x Dead string


Intro/Verse:

E|-----------------------|-----------------------|
B|-----------------------|-----------------------|
G|-----------------------|-----------------------|
D|------77------55-------|---888--77—-5----------|\
A|--55------88-----------|---888--77--5----------| \
D|-----------------------|---888--77--5----------|  \
						    == 2x
E|-----------------------|-------------------------|  /
B|-----------------------|-------------------------| /
G|-----------------------|-------------------------|
D|------77------88-------|---888--77—-5------------|
A|--55------88-----------|---888--77--5------------|
D|-----------------------|---888--77--5------------|


E|-------------------------------------------------|
B|-------------------------------------------------|
G|-------------------------------------------------|
D|---55555--88888---0--7--0--7--8--0--7--0--7--8---|
A|---55555--88888---0--7--0--7--8--0--7--0--7--8---|
D|---55555--88888---0--7--0--7--8--0--7--0--7--8---|

Tapos:

E|-----------------|
B|-----------------|
G|-----------------|
D|---0--5/7--5--3--|
A|---0--5/7--5--3--|
D|---0--5/7--5--3--|

Ulit uli yung strumming hanggang matapos..
Tapos ulitin yung verse..

Verse:

E|------------------------|-----------------------|
B|------------------------|-----------------------|
G|------------------------|-----------------------|
D|-------77------55-------|---888--77—-5----------|
A|---55------88-----------|---888--77--5----------|
D|------------------------|---888--77--5----------|


E|------------------------|-----------------------|
B|------------------------|-----------------------|
G|------------------------|-----------------------|
D|-------77------88-------|---888--77—-5----------|
A|---55------88-----------|---888--77--5----------|
D|------------------------|---888--77--5----------|
 Sorry I didn’t mean to..............

Chorus:

E|-------------------------------------------------|
B|-------------------------------------------------|
G|-------------------------------------------------|
D|---55555--88888---0--7--0--7--8--0--7--0--7--8---|
A|---55555--88888---0--7--0--7--8--0--7--0--7--8---|
D|---55555--88888---0--7--0--7--8--0--7--0--7--8---|

E|-----------------|
B|-----------------|
G|-----------------|
D|---0--5/7--5--3--|
A|---0--5/7--5--3--|
D|---0--5/7--5--3--|
  All the tears that you’ve cry............

(verse again and chorus)

next is..

(mahina ung tunog nito..)

E|-----------------------------------------------|
B|-----------------------------------------------|
G|-----------------------------------------------|
D|---0--0--7--6--5--6--0--5---88--55-------------|    4x
A|---0--0--7--6--5--6--0--5----------------------|
D|---0--0--7--------6--0--5----------------------|

(Tapos lakasan ung strumming)
Nagsisisigaw na xa dito hehe..


E|-----------------------------------------------|
B|-----------------------------------------------|
G|-----------------------------------------------|
D|---0--0--7--6--5--6--0--5---88--55-------------|    8x
A|---0--0--7--6--5--6--0--5----------------------|
D|---0--0--7--------6--0--5----------------------|


Dito nmn ngtititili haha, peace tayo..

E|--------------------------------|
B|--------------------------------|
G|--------------------------------|
D|--------777---------------------|\
A|---555-------888--777--55--77---| \
D|--------------------------------|  \
				     == 4x
E|----------------------------------|  /
B|----------------------------------| /
G|----------------------------------|
D|--------555-----------------------|
A|---333-------666--555--33--55-----|
D|----------------------------------|

Chorus:

E|-------------------------------------------------|
B|-------------------------------------------------|
G|-------------------------------------------------|
D|---55555--88888---0--7--0--7--8--0--7--0--7--8---|
A|---55555--88888---0--7--0--7--8--0--7--0--7--8---|
D|---55555--88888---0--7--0--7--8--0--7--0--7--8---|

E|-----------------|
B|-----------------|
G|-----------------|
D|---0--5/7--5--3--|
A|---0--5/7--5--3--|
D|---0--5/7--5--3--|
  All the tears that you’ve cry............


Continuation of chorus:

E|------------------|  strum all the way u want until
B|------------------|		the chorus ends..
G|------------------|
D|---8888888--------|
A|---8888888--------|
D|---8888888--------|

Tapos:
E|------------------|
B|------------------| ito yung banding katapusan ng
G|------------------|   pag scream nya hehe..
D|---00-------------|
A|---00-------------|
D|---00-------------|

  I can’t just sleep
E|---------------------------------------------|
B|---------------------------------------------|
G|---7-----------------------------------------|   8x
D|---7--0--5--7---0--7--0--7--8--0--5/7--0-----|
A|---5--0--5--7---0--7--0--7--8--0--5/7--0-----|
D|------0--5--7---0--7--0--7--8--0--5/7--0-----|

  But you let me burn you too.....
  . . . .
E|---------------------------------------------|
B|---------------------------------------------|
G|---------------------------------------------|
D|---55555555--88888888--33333333--55555555----|
A|---55555555--88888888--33333333--55555555----|
D|---55555555--88888888--33333333--55555555----|


   Burn you too..
E|---------------------------------------------|
B|---------------------------------------------|
G|---------------------------------------------|
D|---55555555--88888888--33333333--55555555----|
A|---55555555--88888888--33333333--55555555----|
D|---55555555--88888888--33333333--55555555----|


Chorus:

E|-------------------------------------------------|
B|-------------------------------------------------|
G|-------------------------------------------------|
D|---55555--88888---0--7--0--7--8--0--7--0--7--8---|
A|---55555--88888---0--7--0--7--8--0--7--0--7--8---|
D|---55555--88888---0--7--0--7--8--0--7--0--7--8---|

E|-----------------|
B|-----------------|
G|-----------------|
D|---0--5/7--5--3--|
A|---0--5/7--5--3--|
D|---0--5/7--5--3--|
  All the tears that you’ve cry............

Continuation of chorus:

E|-----------------------------------------------|
B|-----------------------------------------------|
G|-----------------------------------------------|  3x
D|---7--0--7--8--0--5/7--5--7--------------------|
A|---7--0--7--8--0--5/7--5--7--------------------|
D|---7--0--7--8--0--5/7--5--7--------------------|


Ending:

E|-----------------------|-----------------------|
B|-----------------------|-----------------------|
G|-----------------------|-----------------------|
D|------77------55-------|---888--77—-5----------|\
A|--55------88-----------|---888--77--5----------| \
D|-----------------------|---888--77--5----------|  \
				                    == 2x
E|-----------------------|-------------------------|  /
B|-----------------------|-------------------------| /
G|-----------------------|-------------------------|
D|------77------88-------|---888--77—-5------------|
A|--55------88-----------|---888--77--5------------|
D|-----------------------|---888--77--5------------|
   Sorry I didn’t mean to.......




Hehe wOoh kakapagod gumawa ng tab hehe.. kakaadik (//_+)
Email nyo lng ako sa: wind_chime18@yahoo.com
Kung meron kayung tanong.. hehe
Tap to rate this tab
 
# A B C D E F G H I J K L M N O P Q R S T U V W X Y Z