Song name
# A B C D E F G H I J K L M N O P Q R S T U V W X Y Z

Saydie - Muera tab

Song:Muera
Artist:Saydie
Date Tabbed:July,2006
Guitar Tabber:Ryan Manongdo/16/m/Montalban Rizal
              no_falter0x@yahoo.com(Friendster&YM)
              09229015724(Sun Cell)

Gtr.Legends:
~ - LET IT RING
. - PALM MUTING
h - HAMMER-ON
/ - SLIDE

Gtr.Tuning:Drop D

Intro:Repeat 4x
Gtr.1:
e|-------------------|
B|-------------------|
G|-------------------|
D|-0~--8~--5~--8-7---|
A|-0~--8~--5~--6-5---|
D|-0~--8~--5~--------|

Gtr.2:
e|-----------------------|
B|-----------------------|
G|--------------77-6-7---|
D|-0~--8~--5~------------|
A|-0~--8~--5~------------|
D|-0~--8~--5~------------|

Verse:
e|--------------------------|
B|--------------------------|
G|--------------------------| 4x
D|---------------88-77------|
A|-0-0-8-7-5-0-0-------88---|
D|-0-0-8-7-5-0-0------------|
   .         . .

Repeat Intro:

Repeat Verse:

Pre-Chorus:Repeat Intro:

Chorus:
e|----------------------      -------|
B|----------------------      -------|
G|---------------------- 4x   -------|
D|-55-0--55-0--8-5-8-7-- Then --0~---|
A|-55-0--55-0--8-5-6-5--      --0~---|
D|-55-0--55-0--8-5------      --0~---|

Bridge prt.1:
e|---------------------------------------------------------------------------|
B|------------------------------------------1717-1515-1717--1717-1515-1717---|
G|-77-66-77--77-66-77--77-66-77--77-66-77------------------------------------| 2x
D|---------------------------------------------------------------------------|
A|---------------------------------------------------------------------------|
D|---------------------------------------------------------------------------|

Bridge prt.2:
e|-------------------      ------|
B|------------------- 4x   ------|
G|------------------- Then ------|
D|-0~--8-7-5--8~-5~--      -0~---|
A|-0~--8-7-5--8~-5~--      -0~---|
D|-0~--8-7-5--8~-5~--      -0~---|

Bridge prt.3:
Gtr.1:
e|----------------------------------|
B|----------------------------------|
G|----------------------------------| Listen to the song
D|----------------------------------| for timing...
A|-0-0-7-88-7-0-0-0-7-8-7-5-0-0-0---|
D|-0-0-7-88-7-0-0-0-7-8-7-5-0-0-0---|
   . .        . . . . . . . . . .

Gtr.2 Enters:
e|-----------------|
B|-3h0--3h0--3h0---|
G|-----------------|
D|-----------------|
A|-----------------|
D|-----------------|

Bridge prt.4(Last Part)
e|--------------------------|
B|--------------------------| Listen to the song
G|--------------------------| for timing...
D|-0~-7-8-7-5-0~-7-8-5-0~---|
A|-0~-7-8-7-5-0~-7-8-5-0~---|
D|-0~-7-8-7-5-0~-7-8-5-0~---|

Repeat Pre-Chorus and Chorus:

Riff:
Play this very fast...
e|------------------------|
B|------------------------|
G|------------------------| Listen to the song
D|------------------------| for timing...
A|-4-5-4-7-5-44-5-4-5/7---|
D|------------------------|

Repeat Bridge prt.2 for gtr.1 and repeat the Bridge prt.3 for gtr.2:

Repeat Pre-Chorus and Chorus:

Last Chord:
e|------|
B|------|
G|------|
D|-0~---|
A|-0~---|
D|-0~---|

End...

Tap to rate this tab
 
# A B C D E F G H I J K L M N O P Q R S T U V W X Y Z