Guitaretab - guitar tabs
Song name
# A B C D E F G H I J K L M N O P Q R S T U V W X Y Z

Scale The Summit - The Great Plains tab

Please note that The Great Plains is played on a 8 string. I have switched it to a 6 
The only difference is the last few notes, but don't worry, it sounds the same :] it is all 
and at the second and last figures you use two fingers for some notes.
Have fun.

e |------------------------------------------------------------------------|
h |------------------------------------------------------------------------|
g |------------------------------------------------------------------------|
A |-----------6h7h14---11p6h7h14/18---------6h7h14---11p6h7h14/18----------|
D |------------------------------------------------------------------------|
E |--5h7t14/16------5h7------------5h7h14/16------5h7----------------------|

e |------------------------------------------------------------------------|
h |--------17-------------------------------17-----------------------------|
g |------9----14------14---------14-------9----14----14---------14---------|
A |----7------------7-14-7p4h6h7-14-----7----------7-14-7p4h6h7-14---------|
D |--5------------4-------------------5-----------4------------------------|
E |------------------------------------------------------------------------|

e |------------------------------------------------------------------------|
h |------------------------------------------------------------------------|
g |------------------------------------------------------------------------|
A |-----------6h7h14---11p6h7h14/18---------6h7h14---11p6h7h14/18----------|
D |------------------------------------------------------------------------|
E |--5h7t14/16------5h7------------5h7h14/16------5h7----------------------|

e |------------------------------------------------------------------------|
h |--------17-------------------------------17-----------------------------|
g |------9----14------14---------14-------9----14----14---------14---------|
A |----7------------7-14-7p4h6h7-14-----7----------7-14-7p4h6h7-14---------|
D |--5------------4-------------------5-----------4------------------------|
E |------------------------------------------------------------------------|

e |------------------------------------------------------------------------|
h |------------------------------------------------------------------------|
g |------------------------------------------------------------------------|
A |-----------6h7h14---11p6h7h14/18---------6h7h14---11p6h7h14/18----------|
D |------------------------------------------------------------------------|
E |--5h7t14/16------5h7------------5h7h14/16------5h7----------------------|

e |------------------------------------------------------------------------|
h |--------17-------------------------------17-----------------------------|
g |------9----14------14---------14-------9----14----14---------14---------|
A |----7------------7-14-7p4h6h7-14-----7----------7-14-7p4h6h7-14---------|
D |--5------------4-------------------5-----------4------------------------|
E |------------------------------------------------------------------------|

e |------------------------------------------------------------------------|
h |------------------------------------------------------------------------|
g |------9t14-----11-----11t16------14-----13------------------------------|
A |----7------7h9------9-------9h11----7h9---------------------------------|
D |--5---------------7-----------------------------------------------------|
E |------------------------------------------------------------------------|
[ Tab from: http://www.guitaretab.com/s/scale-the-summit/186764.html ]
e |------------------------------------------------------------------------|
h |------------------------------------------------------------------------|
g |------9t14-----11-----11t16------14-----13------------------------------|
A |----7------7h9------9-------9h11----7h9---------------------------------|
D |--5---------------7-----------------------------------------------------|
E |------------------------------------------------------------------------|

e |------------------------------------------------------------------------|
h |------------------------------------------------------------------------|
g |------9t14-----11-----11t16------14-----13------------------------------|
A |----7------7h9------9-------9h11----7h9---------------------------------|
D |--5---------------7-----------------------------------------------------|
E |------------------------------------------------------------------------|

e |------------------------------------------------------------------------|
h |------------------------------------------------------------------------|
g |------9t14-----11-----11t16------14-----13------------------------------|
A |----7------7h9------9-------9h11----7h9---------------------------------|
D |--5---------------7-----------------------------------------------------|
E |------------------------------------------------------------------------|

This next bit consists of four figures. Now remember that this entire song is tapped, so 
stays true for this next part too. You play these figures for how ever many times. :]
               Figure 1
e |------------------------------------------------------------------------|
h |------------------------------------------------------------------------|
g |------14---14---(x4)----------------------------------------------------|
A |----7----7--------------------------------------------------------------|
D |--5---------------------------------------------------------------------|
E |------------------------------------------------------------------------|
               Figure 2
e |------------------------------------------------------------------------|
h |------------------------------------------------------------------------|
g |------13---13---(x4)----------------------------------------------------|
A |----9----9--------------------------------------------------------------|
D |--7---------------------------------------------------------------------|
E |------------------------------------------------------------------------|
               Figure 3
e |------------------------------------------------------------------------|
h |------------------------------------------------------------------------|
g |-------16----16---(x1)--------------------------------------------------|
A |----11----11------------------------------------------------------------|
D |--9---------------------------------------------------------------------|
E |------------------------------------------------------------------------|
               Figure 4
e |------------------------------------------------------------------------|
h |------------------------------------------------------------------------|
g |------13---13---(x1)----------------------------------------------------|
A |----9----9--------------------------------------------------------------|
D |--7---------------------------------------------------------------------|
E |------------------------------------------------------------------------|

Play however many times :] The part during this section that kind of switches up and 
trippy is guitar layering. To play this part you need two guitarists, so don't worry about 
:]

e |------------------------------------------------------------------------|
h |--------17~~----------------15~~-----------15---------------------------|
g |------9----14~~----------14~~-----------------14---------7~~------------|
A |----7~~----------------9--------------7----------7-------7~~------------|
D |--5~~----------------7--------------5--------------5-----5~~------------|
E |-------------------5--------------3------------------3------------------|


Key
h=hammer on
p=pull off
t=tap
/=slide
~=let the note ring

http://www.myspace.com/scalethesummit
Related for The Great Plains tab
The Great Plains chords by Scale The Summit