Guitaretab - guitar tabs
Song name
# A B C D E F G H I J K L M N O P Q R S T U V W X Y Z

Scale The Summit - Dunes tab

-------------------------------------------------------------------------------
		    Dunes - Scale The Summit
-------------------------------------------------------------------------------
 
 Tabbed by:dvanwyk
 Email:dustinvanwyk@yahoo.com

 Tuning: Standard
 Guitar 1

 Intro (0.00 - 1.00)
e|-----------------------|
B|-----------------------|
G|---12-14---------------|
D|12-------12-14-15------|
A|-----------------------|
E|-----------------------|

e|--------------------|
B|--------------------|
G|55555555-77777777---|
D|77777777-77777777---|
A|33333333-55555555---|
E|--------------------|

e|--------------------------------------------------|
B|--------------------------------------------------|
G|55-55-55-55-44-44-44-44-55-55-55-55-77-77-77-77---|
D|77-77-77-77-55-55-55-55-55-55-55-55-77-77-77-77---|
A|33-33-33-33-22-22-22-22-33-33-33-33-55-55-55-55---|
E|--------------------------------------------------|
  .. .. .. .. .. .. .. .. .. .. .. .. .. .. .. ..



e|------------------17~--12/15-14-12----14----12-10--------------|
B|---------------15------------------15----13-------13p12-10~----|
G|---------12/14-------------------------------------------------|
D|---10/12-------------------------------------------------------|
A|12-------------------------------------------------------------|
E|---------------------------------------------------------------|

e|------------------17~--12/15-14-12----14----10h12p10-----------|
B|---------------15------------------15----13----------13p12-10~-|
G|---------12/14-------------------------------------------------|
D|---10/12-------------------------------------------------------|
A|12-------------------------------------------------------------|
E|---------------------------------------------------------------|

e|--------------------------------------------------|
B|--------------------------------------------------|
G|55-55-55-55-44-44-44-44-55-55-55-55-77-77-77-77---|
D|77-77-77-77-55-55-55-55-55-55-55-55-77-77-77-77---|
A|33-33-33-33-22-22-22-22-33-33-33-33-55-55-55-55---|
E|--------------------------------------------------|
  

e|----------------------------|
B|----------------------------|
G|----------------------------|
D|14-12-10----------10-12-----|
A|---------12-----------------|
E|------------12-10-----------|

 x3
e|---------------------------------15------------|
B|------------------------------13----13---------|
G|-----------------------------------------------|
D|------14----15-14----15-14-15----------15------|
A|---12----12-------12----------------------12---|
E|10---------------------------------------------|

 x1
e|----------------------------------------------|
B|----------------------------------------------|
G|----------------------------------------------|
D|------14----15-14-15-14h15p14-----------------|
A|---12----12-------------------15-10h12--------|
E|10-------------------------------------12h13--|


e|--------------------------------------------------------------------------|
B|-------------------------------13~-12h13p12-------------------------15~---|
G|---------------14~----------14--------------14----------------10/12-------|
D|---10-14----15--------14-15--------------------15-14-12-10/12-------------|
A|12-------12--------12-----------------------------------------------------|
E|--------------------------------------------------------------------------|
  .        .         .

 x4
e|-----------------------------------------10/13/10-----------------------------|
B|----------------------------13~-----------------------------------------------|
G|----------------------10-12-----------10----------14-------------10p9---------|
D|----------12-------12-----------10-12----------------14-12------------10/7----|
A|-------10-------10-----------------------------------------15-12--------------|
E|101010-------10---------------------------------------------------------------|
  . . .        .

e|----------------------------------------------------|
B|----------------------------------------------------|
G|----------------------------------------------------|
D|-----10-------10------10~--------14~-12~-12/10-10---|
A|--10-------10------10---------12--------------------|
E|8--------8-------8---------10-----------------------|

e|-----------------------------------------------------------------10/15~---|
B|-----------------------------------------15/13-12h13-12-10-12-13----------|
G|-----------------------------17-------14----------------------------------|
D|-----------12----------12/14-------14-------------------------------------|
A|--------10----------------------15----------------------------------------|
E|8-10-12-------10-12-13----------------------------------------------------|
  . .  .        .  .  .


 x2
e|----------------------------------------------------------------------|
B|----------------------------------------------------------------------|
G|-------------------------10h12h14--------------------------10h12h14---|
D|-----14---------------14---------------14---------------14------------|
A|--------8h10h12---------------------------8h10h12---------------------|
E|1010-------------1010-------------1010-------------1010---------------|
  . .              . .              . .              . .

e|------------------------------------------10h12h13---------12h13h15---|
B|--------10h12h13---------12h13h15-------------------------------------|
G|-----14---------------14---------------14---------------14------------|
D|----------------------------------------------------------------------|
A|1010-------------1010-------------1010-------------1010---------------|
E|----------------------------------------------------------------------|
  . .              . .              . .              . .

 
e|------------t12--------------------|
B|----------8----------------8-t13---|
G|----9-t10------------9-t10---------|
D|--7----------------7---------------|
A|5----------------5-----------------|
E|-----------------------------------|
[ Tab from: http://www.guitaretab.com/s/scale-the-summit/192750.html ]
e|------------t12--------------------|
B|----------8----------------8-t13---|
G|----9-t10------------9-t10---------|
D|--7----------------7---------------|
A|5----------------5-----------------|
E|-----------------------------------|

e|------------t10--------------t10---|
B|----------8----------------8-------|
G|------t10--------------t10---------|
D|----7----------------7-------------|
A|--5----------------5---------------|
E|3----------------3-----------------|

e|------------t10--------------t10---|
B|----------8----------------8-------|
G|------t10--------------t10---------|
D|----7----------------7-------------|
A|--5----------------5---------------|
E|3----------------3-----------------|



 Guitar 2
 Intro
e|------------------------------|
B|----------------6~------------|
G|7~------------7---------------|
D|7~----------7-----------------|
A|5~--------5-------------------|
E|------------------------------|
 
 (0.14 - 0.32)
e|-----------------------|
B|-----------------------|
G|------------14---------|
D|---12-14-15------------|
A|12---------------------|
E|-----------------------|

 x1
e|------------------------------|
B|----------------6~------------|
G|7~------------7---------------|
D|7~----------7-----------------|
A|5~--------5-------------------|
E|------------------------------|

 (0.42 - 1.00)
e|-----------------------|
B|-----------------------|
G|------------14---------|
D|---12-14-15------------|
A|12---------------------|
E|-----------------------|

e|--------------------|
B|--------------------|
G|55555555-77777777---|
D|77777777-77777777---|
A|33333333-55555555---|
E|--------------------|

 x2
e|--------------------------------------------------|
B|--------------------------------------------------|
G|55-55-55-55-44-44-44-44-55-55-55-55-77-77-77-77---|
D|77-77-77-77-55-55-55-55-55-55-55-55-77-77-77-77---|
A|33-33-33-33-22-22-22-22-33-33-33-33-55-55-55-55---|
E|--------------------------------------------------|
  .. .. .. .. .. .. .. .. .. .. .. .. .. .. .. ..

 x2
e|--------------------------------------------------|
B|--------------------------------------------------|
G|55-55-55-55-44-44-44-44-55-55-55-55-77-77-77-77---|
D|77-77-77-77-55-55-55-55-55-55-55-55-77-77-77-77---|
A|33-33-33-33-22-22-22-22-33-33-33-33-55-55-55-55---|
E|--------------------------------------------------|
  
e|----------------------------|
B|----------------------------|
G|----------------------------|
D|14-12-10----------10-12-----|
A|---------12-----------------|
E|------------12-10-----------|

 x3
e|---------------------------------15------------|
B|------------------------------13----13---------|
G|-----------------------------------------------|
D|------14----15-14----15-14-15----------15------|
A|---12----12-------12----------------------12---|
E|10---------------------------------------------|

 x1
e|----------------------------------------------|
B|----------------------------------------------|
G|----------------------------------------------|
D|------14----15-14-15-14h15p14-----------------|
A|---12----12-------------------15-10h12--------|
E|10-------------------------------------12h13--|

e|----------------------------------|
B|----------------------------------|
G|----------------------------------|
D|------10~--12/14-12-10-------12~--|
A|---12---------------------12------|
E|10---------------------10---------|

 (2.00 - 2.38)
e|--------------------|
B|--------------------|
G|-------12~----------|
D|14~-----------12~---|
A|--------------------|
E|--------------------|

e|-----------------------------------------------------------------10/15~---|
B|-----------------------------------------15/13-12h13-12-10-12-13----------|
G|-----------------------------17-------14----------------------------------|
D|-----------12----------12/14-------14-------------------------------------|
A|--------10----------------------15----------------------------------------|
E|8-10-12-------10-12-13----------------------------------------------------|
  . .  .        .  .  .

 x2
e|----------------------------------------------------------------------|
B|----------------------------------------------------------------------|
G|--------10h12h14---------10h12h14---------10h12h14---------10h12h14---|
D|-----14---------------14---------------14---------------14------------|
A|----------------------------------------------------------------------|
E|1010-------------1010-------------1010-------------1010---------------|
  . .              . .              . .              . .

e|------------------------------------------10h12h13---------12h13h15---|
B|--------10h12h13---------10h12h13-------------------------------------|
G|-----14---------------14---------------14---------------14------------|
D|----------------------------------------------------------------------|
A|1010-------------1010-------------1010-------------1010---------------|
E|----------------------------------------------------------------------|
  . .              . .              . .              . .


e|------------t12--------------------|
B|----------8----------------8-t13---|
G|----9-t10------------9-t10---------|
D|--7----------------7---------------|
A|5----------------5-----------------|
E|-----------------------------------|

e|------------t12--------------------|
B|----------8----------------8-t13---|
G|----9-t10------------9-t10---------|
D|--7----------------7---------------|
A|5----------------5-----------------|
E|-----------------------------------|

e|------------t10--------------t10---|
B|----------8----------------8-------|
G|------t10--------------t10---------|
D|----7----------------7-------------|
A|--5----------------5---------------|
E|3----------------3-----------------|

e|------------t10--------------t10---|
B|----------8----------------8-------|
G|------t10--------------t10---------|
D|----7----------------7-------------|
A|--5----------------5---------------|
E|3----------------3-----------------|



 Guitar 3
 (0.21) & (0.50)
e|------------------------------------------------------------|
B|---------------12-13-10~--12h13-12p10-----------------------|
G|---------10-14------------------------1010-12---------------|
D|---12-10--------------------------------------14------------|
A|------------------------------------------------------------|
E|10------------------------------------------------13-12-10~-|
  .
Related for Dunes tab
Dunes chords by Scale The Summit