Scale The Summit - Age Of The Tide tab

 this is my frist tab so tell me what u think..

this song is played on a 7-string but the intro is all on 6-string



e |-----------------------------------------------------|
b |-------------3~-----------(3)---------(3)------------|
g |---5~-------(5)------------5~---------(5)------------|
d |---5~-------(5)-----------(5)----------5~---/7-------|
a |---3~-------(3)-----------(3)---------(3)----------5-|
e |---3~-------(3)-----------(3)---------(3)------------|
b |-----------------------------------------------------|




   e |--------------------------------------------------|
   b |--------------------------------------------------|
   g |--------------------------------------------------|
   d |----------2-------2h5--------------2-------2h5----|  play 2 times
   a |------3-------3----------------3-------3----------|
   e |-1-------------------------1----------------------|
   b |--------------------------------------------------|



   e |----------------------------------------------|
   b |----------------------------------------------|
   g |---5--4------------------5---4----------------|
   d |-----------0---2---3--------------0---2---3---|  play 2 times
   a |----------------------------------------------|
   e |----------------------------------------------|
   b |----------------------------------------------|


tell like 0:43 the riff just keep going back and forth

 
Tap to rate this tab
 
# A B C D E F G H I J K L M N O P Q R S T U V W X Y Z