Song name
# A B C D E F G H I J K L M N O P Q R S T U V W X Y Z

Scandal - The Warrior tab

-------------------------------------------------------------------------------
			     SONG NAME - Band Name
-------------------------------------------------------------------------------
Tabbed by:
Email:

Tuning:

e|-3---2---------------------------------------------------------------------|
B|-3---3---2--2--2---3-------------------------------------------------------|
G|-0---2---2--2--2---4--4----------------------------------------------------|
D|-0---0---2--2--2---4--4----------------------------------------------------|
A|-x-------0--0--0---2--2/0--------------------------------------------------|
E|-3-------------------------------------------------------------------------|

                Then there is this lead part

e|10-9----------------------------------------------------------------------|
B|-----10-------------------------------------------------------------------|
G|--------------------------------------------------------------------------|
D|--------------------------------------------------------------------------|
A|--------------------------------------------------------------------------|
E|--------------------------------------------------------------------------|


| /  slide up
| \  slide down
| h  hammer-on
| p  pull-off
| ~  vibrato
| +  harmonic
| x  Mute note
===============================================================================
Tap to rate this tab
# A B C D E F G H I J K L M N O P Q R S T U V W X Y Z