Song name
# A B C D E F G H I J K L M N O P Q R S T U V W X Y Z

Scandal - Doll tab

|------------------------|
|------------------------|
|-----7-7----------------|
|9-9--7-7--7-7--5-7-9----|    x4  Intro
|9-9--5-5--7-7--5-7-9----|
|7-7-------5-5--3-5-7----|

|---------------|
|---------------|
|---------------| x4  couplet 
|7-7-7/9--------|
|7-7-7/9--------|
|5-5-5/7--------|

Tap to rate this tab
# A B C D E F G H I J K L M N O P Q R S T U V W X Y Z