Song name
# A B C D E F G H I J K L M N O P Q R S T U V W X Y Z

Scandal - Sl Magic tab

-----------------------------------------------------------------
S.L. Magic - SCANDAL
-----------------------------------------------------------------
Tabbed by: rreizend
Email: raging_skullz@hotmail.com

Tuning: Standard

NOTE: this is quite a rough estimate, im guessing around 87%, so.. have fun!

e|---------------------------------------------------------------|
B|---------------------------------------------------------------|
G|-----------------------------4-4-----4-4-----4-4----4----------|
D|--5-5-----5-5-----5-5-----5--4-4-x4--4-4-x2--4-4-x2-4----------|
A|--5-5-x4--5-5-x2--5-5-x2--5--2-2-----2-2-----2-2----2----------|
E|--3-3-----3-3-----3-3-----3------------------------------------|
      *       *       *          *       *       *                     x3 Intro + verse
e|---------------------------------------------------------------|
B|---------------------------------------------------------------|
G|--5-5----5-5----5-5----5-5\2-2----2-2/5-5/7-7------------------|
D|--5-5-x4-5-5-x2-5-5-x2-5-5\2-2-x4-2-2/5-5/7-7------------------|
A|--3-3----3-3----3-3----3-3\0-0----0-0/3-3/5-5------------------|
E|---------------------------------------------------------------|
      *      *      *          *
e|---------------------------------------------------------------|
B|---------------------------------------------------------------|
G|-----------------------------4-4-----4-4-----4-4----4----------|
D|--5-5-----5-5-----5-5-----5--4-4-x4--4-4-x2--4-4-x2-4----------|
A|--5-5-x4--5-5-x2--5-5-x2--5--2-2-----2-2-----2-2----2----------|
E|--3-3-----3-3-----3-3-----3------------------------------------|
      *       *       *          *       *       *                     
e|---------------------------------------------------------------|
B|---------------------------------------------------------------|
G|--5-5----5-5\2-2----7------------------------------------------|
D|--5-5-x4-5-5\2-2-x4-7-x8---------------------------------------|
A|--3-3----3-3\0-0----5------------------------------------------|
E|---------------------------------------------------------------|
      *          *
e|---------------------------------------------------------------|
B|---------------------------------------------------------------|
G|--[5-5]-------------[5-5]----7---------------------------------|
D|--[5-5]-x4-[5-5]----[5-5]-x4-7-x8------------------------------|     x2 Pre-Chorus
A|--[3-3]----[5-5]-x4-[3-3]----5---------------------------------|
E|-----------[3-3]-----------------------------------------------|

e|---------------------------------------------------------------|
B|---------------------------------------------------------------|
G|-------4----5---------5----7-----------------------------------|
D|--5----4-x8-5-x8-7----5-x2-7-x2--------------------------------|
A|--5-x8-2----3----7-x4-3----5-----------------------------------|
E|--3--------------5---------------------------------------------|
                                                                       Chorus
e|---------------------------------------------------------------|
B|---------------------------------------------------------------|
G|-------4----5--------------------------------------------------|
D|--5----4-x8-5-x8-5----/17~----X--------------------5-5---------|
A|--5-x8-2----3----5-x4-/17~----X-x(refer to song)---5-5-x4------|
E|--3--------------3----/15~----X--------------------3-3---------|
                                                       *
e|---------------------------------------------------------------|
B|---------------------------------------------------------------|
G|-----------------------------4-4-----4-4-----4-4----4----------|
D|--5-5-----5-5-----5-5-----5--4-4-x4--4-4-x2--4-4-x2-4----------|
A|--5-5-x4--5-5-x2--5-5-x2--5--2-2-----2-2-----2-2----2----------|
E|--3-3-----3-3-----3-3-----3------------------------------------|
      *       *       *          *       *       *                     Verse
e|---------------------------------------------------------------|
B|---------------------------------------------------------------|
G|--5-5----5-5----5-5----5-5\2-2----2-2/5-5/7-7------------------|
D|--5-5-x4-5-5-x2-5-5-x2-5-5\2-2-x4-2-2/5-5/7-7------------------|
A|--3-3----3-3----3-3----3-3\0-0----0-0/3-3/5-5------------------|
E|---------------------------------------------------------------|
      *      *      *          *
e|---------------------------------------------------------------|
B|---------------------------------------------------------------|
G|------------[4-4]----5-5----5----\2-2----2----/7---------------|
D|--[5-5]-----[4-4]-x5-5-5-x4-5-x2-\2-2-x4-2-x2-/7-x8------------|
A|--[5-5]-x5--[2-2]----3-3----3----\0-0----0----/5---------------|
E|--[3-3]--------------------------------------------------------|
                         *
e|---------------------------------------------------------------|
B|---------------------------------------------------------------|
G|--[5-5]-------------[5-5]----7----7\---------------------------|
D|--[5-5]-x4-[5-5]----[5-5]-x4-7-x7-7\---------------------------|
A|--[3-3]----[5-5]-x4-[3-3]----5----5\---------------------------|
E|-----------[3-3]-----------------------------------------------|

e|---------------------------------------------------------------|
B|---------------------------------------------------------------|
G|-------4----5---------5----7-----------------------------------|
D|--5----4-x8-5-x8-7----5-x2-7-x2--------------------------------|
A|--5-x8-2----3----7-x4-3----5-----------------------------------|
E|--3--------------5---------------------------------------------|
                                                                       Chorus #2
e|---------------------------------------------------------------|
B|---------------------------------------------------------------|
G|-------4----5--------------------------------------------------|
D|--5----4-x8-5-x8-continue to bridge----------------------------|
A|--5-x8-2----3--------------------------------------------------|
E|--3------------------------------------------------------------|

e|---------------------------------------------------------------|
B|---------------------------------------------------------------|
G|-----------5----7----------------------------------------------|
D|--[5-5]----5-x2-7-x2-------------------------------------------|     Bridge #1 x3
A|--[5-5]-x3-3----5----------------------------------------------|
E|--[3-3]--------------------------------------------------------|

e|---------------------------------------------------------------|
B|---------------------------------------------------------------|
G|-----------5---------------------------------------------------|
D|--[5-5]----5-x4------------------------------------------------|     Bridge #2
A|--[5-5]-x3-3---------------------------------------------------|
E|--[3-3]--------------------------------------------------------|

e|---------------------------------------------------------------|
B|---------------------------------------------------------------|
G|-----------5----7----------------------------------------------|
D|--[5-5]----5-x2-7-x2-------------------------------------------|     Bridge #1 x3
A|--[5-5]-x3-3----5----------------------------------------------|
E|--[3-3]--------------------------------------------------------|

e|---------------------------------------------------------------|
B|---------------------------------------------------------------|
G|---------------------------------------------------------------|
D|--[5-5]--------------------------------------------------------|
A|--[5-5]-x3-----------------------------------------------------|
E|--[3-3]--------------------------------------------------------|

e|---------------------------------------------------------------|
B|---------------------------------------------------------------|
G|-----------------------------4-4-----4-4-----4-4----4----------|
D|--5-5-----5-5-----5-5-----5--4-4-x4--4-4-x2--4-4-x2-4----------|
A|--5-5-x4--5-5-x2--5-5-x2--5--2-2-----2-2-----2-2----2----------|
E|--3-3-----3-3-----3-3-----3------------------------------------|
      *       *       *          *       *       *                     Post-Bridge
e|---------------------------------------------------------------|
B|---------------------------------------------------------------|
G|--5-5----5-5----5-5----5-5\2-2----2-2/5-5/7-7------------------|
D|--5-5-x4-5-5-x2-5-5-x2-5-5\2-2-x4-2-2/5-5/7-7------------------|
A|--3-3----3-3----3-3----3-3\0-0----0-0/3-3/5-5------------------|
E|---------------------------------------------------------------|
      *      *      *          *
e|---------------------------------------------------------------|
B|---------------------------------------------------------------|
G|-----------[4-4]----[5-5]----[7-7]-----------------------------|
D|--[5-5]----[4-4]-x5-[5-5]-x5-[7-7]-x8--------------------------|     Pre-Chorus
A|--[5-5]-x5-[2-2]----[3-3]----[5-5]-----------------------------|
E|--[3-3]--------------------------------------------------------|

e|---------------------------------------------------------------|
B|---------------------------------------------------------------|
G|-------4----5---------5----7-----------------------------------|
D|--5----4-x8-5-x8-7----5-x2-7-x2--------------------------------|
A|--5-x8-2----3----7-x4-3----5-----------------------------------|
E|--3--------------5---------------------------------------------|
                                                                       Chorus #3
e|---------------------------------------------------------------|
B|---------------------------------------------------------------|
G|-------4----5---------7----------------------------------------|
D|--5----4-x8-5-x8-5----7-x4-------------------------------------|
A|--5-x8-2----3----5-x4-5----------------------------------------|
E|--3--------------3---------------------------------------------|

e|---------------------------------------------------------------|
B|---------------------------------------------------------------|
G|-------4----5---------5----7-----------------------------------|
D|--5----4-x8-5-x8-7----5-x2-7-x2--------------------------------|
A|--5-x8-2----3----7-x4-3----5-----------------------------------|
E|--3--------------5---------------------------------------------|
                                                                       Chorus/Outro
e|---------------------------------------------------------------|
B|---------------------------------------------------------------|
G|-------4----5--------------------------------------------------|
D|--5----4-x8-5-x8-[5-5]----5-5~---------------------------------|
A|--5-x8-2----3----[5-5]-x2-5-5~---------------------------------|
E|--3--------------[3-3]----3-3~---------------------------------|

| /  slide up
| \  slide down
| h  hammer-on
| p  pull-off
| ~  vibrato
| +  harmonic
| x  Mute note
Tap to rate this tab
 
# A B C D E F G H I J K L M N O P Q R S T U V W X Y Z