Song name
# A B C D E F G H I J K L M N O P Q R S T U V W X Y Z

Scandal - Shunkan Sentimental tab

Intro/Outro Solo:
---------------------------------------------------------------------------12--10-9--------------|
---10-12-12b14b12-10-----12-12b1412-10-----12-12b1412-10----------------10----------12-10-9-10-12|
11-------------------11----------------11----------------11-11-9-11--11--------------------------|
-------------------------------------------------------------------------------------------------|
-------------------------------------------------------------------------------------------------|
-------------------------------------------------------------------------------------------------|

-------------------------------------------------------|
-12-12b1412-10-----12-12b1412-10-------------10--------|
---------------11----------------11--9-10-11----11-----|
-------------------------------------------------------|
-------------------------------------------------------|
-------------------------------------------------------|

Solo:
----------------------------------------------------------------|
-14--14-14-14-14-9--9--10-10-10-10-10-10-12-12-12-12-12-12-9-5--|
----------------------------------------------------------------|
-11--11-11-11-11\6--6--7--7--7--7--7--7/-9--9--9--9--9--9\-6\2--|
----------------------------------------------------------------|
----------------------------------------------------------------|

-------------12--------------------------12b14--|
-10----12---------12----10---12b14b12-11--------|
-----9-----9----------9-------------------------|
------------------------------------------------|
------------------------------------------------|
------------------------------------------------|

Instrumental Solo:
-----------------------------------------------------------|
----10-12-12b1412-10-----12-12b1412-10-------------10------|
-11------------------11----------------11--9-10-11----11---|
-----------------------------------------------------------|
-----------------------------------------------------------|
-----------------------------------------------------------|
Tap to rate this tab
# A B C D E F G H I J K L M N O P Q R S T U V W X Y Z