Song name
# A B C D E F G H I J K L M N O P Q R S T U V W X Y Z

Scandal - Shunkan Sentimental tab

ehh. I saw nobody had a tab of this..soo using my half-assed gift I listened to it
and did it by ear..

Riff A (the intro)
E------------------------------------|
B------------------------------------|
G--------9b--8b--7b--6b--5-----------|
D------------------------------------|
A------------------------------------|
E------------------------------------|

Riff B (intro "solo")
E------------------------------------------------------|
B-----10-12-12-12b13b12p10-------12-12b13b12p10--------|
G--11----------------------11-11----------------11-11--|
D------------------------------------------------------|
A------------------------------------------------------|
E------------------------------------------------------|

E------------12-10-9-------------------------------------|
B--------------------12-10---10-12-12-12b13b12p10--------|
G--9-11-9-11---------------11---------------------11-11--|
D--------------------------------------------------------|
A--------------------------------------------------------|
E--------------------------------------------------------|

E-------------------------------------|
B--12-12b13b12p10---------------10----|
G-----------------11-11-9-11-11----11-|
D-------------------------------------|
A-------------------------------------|
E-------------------------------------|

Riff C (main riff)
E--------------------------------------------|
B--------------------------------------------|
G--------------------------------------------|       x2
D--------------------------------------------|
A----------4444444-5555555-0000000-----------|
E--2222222-----------------------------------|

E------------------------------------|
B------------------------------------|
G------------------------------------|
D----------6666666-7777777-2222222---|
A--4444444-4444444-5555555-0000000---|
E--2222222---------------------------|

E------------------------------------|
B------------------------------------|
G------------------------------------|
D----------6666666-7-7-7-9-9-2-------|
A--4444444-4444444-5-5-5-7-7-0-------|
E--2222222---------------------------|

Riff D (interlude)
       n.h.      n.h.     n.h.
E-------12-------12-------7-------------------------|
B-------12-------12---------------------------------|
G---------------------------------------------------|
D--9-9------9-9------9-9-----------------2222222----|
A--7-7------7-7------7-7-------4-4-4-4-4-0000000----|
E------------------------------2-2-2-2-2------------|

E-----------14----------14------14---|
B--------14----------14---------14---|
G-----14----------14---------14-14---|
D--12----------13---------14----14---|
A------------------------------------|
E------------------------------------|

THE CHORUS (its actually the voice)
E------------------------------------------------------------------------|
B-7-14-9-5-7-14-9-5-7-9-10-12-12s14s12-12-10-9-7-5-7-5-2-5-0----5-6---9--|
G------------------------------------------------------------------------|
D------------------------------------------------------------------------|
A------------------------------------------------------------------------|
E------------------------------------------------------------------------|

Well this is it. thx.

n.h = Natural Harmonic
s   = Slide
b   = bend
p   = pull-off
Tap to rate this tab
# A B C D E F G H I J K L M N O P Q R S T U V W X Y Z