Scandal - Sakura Goodbye tab

intro:

e|--------------------------------|
B|--------------------------------|
G|-3--------7--------3------------|
D|-3--7--5--7--3-----3--7--5--3---|
A|-1--7--5--5--3-----1--7--5--3---|
E|----5--3-----1--------5--3--1---|

Verse:
e|--------------------|
B|--------------------|
G|-3------------------|
D|-3--7--5--3---------|
A|-1--7--5--3--(3x)---|
E|----5--3--1---------|

(repeat Verse)

Chorus:

e|--------------------|
B|--------------------|
G|-3------------------|
D|-3--7--5--3---------|
A|-1--7--5--3--(3x)---|
E|----5--3--1---------|

(repeat Verse)

(repeat Chorus)

Bridge:

e|--------------------------------------------|
B|--------------------------------------------|
G|-7--5---------5------7--3---------3---------|
D|-7--5--3---5--5--3---7--3--3--5---3--5--7---|
A|-5--3--3---5--3--3---5--5--3--5---1--5--7---|
E|-------1---3-----1---------1--3------3--5---|

(repeat Chorus)

Outro:

e|---------------------------------------------|
B|---------------------------------------------|
G|-3--------7--3---3--5--6--7--9---------------|
D|-3--7--5--7--3---3--5--6--7--9--3--5-----3---|
A|-1--7--5--5--1---1--3--4--5--7--3--5-----3---|
E|----5--3------------------------1--3-----1---|
Tap to rate this tab
 
# A B C D E F G H I J K L M N O P Q R S T U V W X Y Z