Scandal - Doll tab

Intro: (3x)

e|--------------------------|
B|--------------------------|
G|-4--4--7--7---------------|
D|-4--4--7--7--7--7--5--7---|
A|-2--2--5--5--7--7--5--7---|
E|-------------5--5--3--5---|

e|--------------------------|
B|--------------------------|
G|-4--4--7--7---------------|
D|-4--4--7--7--7--7---------|
A|-2--2--5--5--7--7---------|
E|-------------5--5---------|

Verse:

e|--------------------------|
B|--------------------------|
G|---------------------4----|
D|-7--7---7--7---------4----|
A|-7--7---7--7--(2x)---2----|
E|-5--5---5--5--------------|

Chorus:

e|---------------------------------|
B|---------------------------------|
G|-4--7--9--4---4--7--9--------4---|
D|-4--7--9--4---4--7--9--5--7--4---|
A|-2--5--7--2---2--5--7--5--7--2---|
E|-----------------------3--5------|

Riff after chorus:
e|----------9b-7----------|
B|---9b-7--7-----9b-7-----|
G|--7-----------7-----8---|
D|------------------------|


(Repeat Verse)
(Repeat Chorus)

Riff before solo: (2x)

e|--------------------------|
B|--------------------------|
G|-6--6--9--9--4--4-----4---|
D|-6--4--9--9--4--4--7--4---|
A|-4--4--7--7--2--2--7--2---|
E|-------------------5------|


Solo:
e|-10--10--10--10--10--10--10--|
B|-12b-12b-12b-12b-12b-12b-12b-|
G|-----------------------------|


e|----10-------------------------12------------------17-17-15-15-17-17-15-15-17~--|
B|-12----12-10-12-10----10---/14----14-12-14-12---12-17-17-15-15-17-17-15-15-17~--|
G|-------------------12------------------------14---------------------------------|
D|--------------------------------------------------------------------------------|

Bridge:

e|--------------------------------|
B|--------------------------------|
G|--------------------------------|
D|-6--4--7--6--5--4--5-----5--7---|
A|-6--4--7--4--5--4--5-----5--7---|
E|-4--2--5--4--3--2--3-----3--5---|

Chorus 2:

e|--------------------------------|
B|--------------------------------|
G|-4--7--9--4-----4--7--9---------|
D|-4--7--9--4-----4--7--9--5--7---|
A|-2--5--7--2-----2--5--7--5--7---|
E|-------------------------3--5---|

Chorus 3:

e|--------------------------------------------------------|
B|--------------------------------------------------------|
G|-4--7--9--12--14-----4--7--9-----4--7--9--12--14--------|
D|-4--7--9--12--14-----4--7--7-----4--5--9--12--14--(2x)--|
A|-2--5--7--10--12-----2--5--7-----2--5--7--10--12--------|
E|--------------------------------------------------------|

Outro:

e|---------|
B|---------|
G|-7--4----|
D|-7--4----|
A|-5--2----|
E|---------|
Tap to rate this tab
 
# A B C D E F G H I J K L M N O P Q R S T U V W X Y Z