Scandal - Kagerou tab

Intro :

e|--------------|
B|--------------|
G|-7--5---------|
D|-7--5--(4x)---|
A|-5--3---------|
E|--------------|

Verse :

e|---------------------------|
B|---------------------------|
G|-3--5--7---3--------5--7---|
D|-3--5--7---3--5--7--5--7---|
A|-1--3--5---1--5--7--3--5---|
E|--------------3--5---------|

Pre-chorus :

e|-----------------------|
B|-----------------------|
G|-3--5--7--------3--5---|
D|-3--5--7--(3x)--3--5---|
A|-1--3--5--------1--3---|
E|-----------------------|

Chorus1 :

e|--------------------------------------|
B|--------------------------------------|
G|-3--5-----7--------8-----7--5---------|
D|-3--5--7--7--(4x)--8-----7--5--(2x)---|
A|-1--3--7--5--------6-----5--3---------|
E|-------5------------------------------|

(repeat Verse,Pre-chorus)

Chorus2 :

e|-----------------------|
B|-----------------------|
G|-3--5-----7--------5---|
D|-3--5--7--7--(4x)--5---|
A|-1--3--7--5--------3---|
E|-------5---------------|

Bridge :

e|-----------------------------------------------------|
B|-----------------------------------------------------|
G|-3--5-----7--------8-----3--5-----7--8--9--------7---|
D|-3--5--7--7--(2x)--8-----3--5--7--7--8--9--7-----7---|
A|-1--3--7--5--------6-----1--3--7--5--6--7--7-----5---|
E|-------5-----------------------5-----------5---------|

(repeat Chorus2)

Outro :

e|--------------|
B|--------------|
G|-7--5--7--8---|
D|-7--5--7--8---|
A|-5--3--5--6---|
E|--------------|
Tap to rate this tab
 
# A B C D E F G H I J K L M N O P Q R S T U V W X Y Z