Song name
# A B C D E F G H I J K L M N O P Q R S T U V W X Y Z

Scandal - Shunkan Sentimental tab

Shunkan Sentimental
Scandal

Tuning: Standard Tuning (EADGBe)

Intro: (distortion all throughout)

guitar2:

(F#5no.3-E5-D5-C#5-|
D5-E5-F#5-C#5------|
D5-E5-D5

guitar1:

*|-----------------------|--------------|--------------|---------------9-12-10p9----------|
*|----10h12-12b-12p10----|-12b-12p10----|-12b-12p10----|------------10------------12-10p9-|
*|-11-----------------11-|-----------11-|-----------11-|-11-11p9h11-----------------------|
*|-----------------------|--------------|--------------|----------------------------------|
*|-----------------------|--------------|--------------|----------------------------------|
*|-----------------------|--------------|--------------|----------------------------------|

*|-----------------------|--------------|----------------|
*|----10h12-12b-12p10----|-12b-12p10----|---------10-----|
*|-11-----------------11-|-----------11-|-11p9h11----11~-|
*|-----------------------|--------------|----------------|
*|-----------------------|--------------|----------------|
*|-----------------------|--------------|----------------|


Verse1:(guitar1&2)

[F#5-C#5-D5-A5]
[F#5-C#5-D5] A break
F#5-C#5-D5-E5-A5
E5_F#5no.3-F#5/no.3
A5-D5-B5-E5
C#5_

Chorus:(guitar1&2)

D5-E5-F#5-C#5-D5-E5-A5-C#5--|
D5-E5-F#5-C#5-D5-E5-F#5no.3-|

Instrumental:

guitar2:

D5-E5-F#5

guitar1:

*|----------------------|-------------|-----------------|
*|----10h12-12b12p10----|-12b12p10----|---------10------|
*|-11----------------11-|----------11-|-11p9h11-----11~-|
*|----------------------|-------------|-----------------|
*|----------------------|-------------|-----------------|
*|----------------------|-------------|-----------------|

Verse2:



 E5--|A5
E5_F#5no.3-F#5/no.3
A5-D5-B5-E5
C#5_

(repeat chorus)

Guitar Solo Part:

guitar2:

D5-A5-E5-F#5

guitar1:

*|-------------------------------------------------|          *|-----------------------------|
*|-13-13-13-13-13/8-8/9-9-9-9-9/12-12-12-12-12/8/5-|          *|-----------------------------|
*|-------------------------------------------------|   or     *|-----------------------------|
*|-10-10-10-10-10/5-5/6-6-6-6-6/-9--9--9--9--9/5/2-|  can be  *|-10~---/5/6~---/9~--/5~/2~---|
*|-------------------------------------------------|  played  *|-----------------------------|
*|-------------------------------------------------|          *|-----------------------------|

*|
*|-11------13------13--------|-----------------14fb-|
*|-----10------10-----13-----|--11-13b-13b-11-------|
*|-----------------------10--|----------------------|
*|---------------------------|----------------------|
*|---------------------------|----------------------|

Bridge:(guitar1&2)

A-AM7-G-F#5----------|no.3_E5
A-AM7-E5-F#5no.3-E5--|D5
C#5 then break...

Chorus2:(guitar1&2)

(D5-E5-F#5-C#5-D5-E5-A5) C#5-|
D5-E5-F#5-C#5-D5-E5-F#5------|G5
D5-E5-F#5-C#5-D5-E5-F#5no.3--|

Outro:

guitar2:

D5-E5-F#5-C#5
D5-E5-F#5_
F#5 hold...

guitar1:

*|-----------------------|--------------|--------------|---------------9-12-10p9----------|
*|----10h12-12b-12p10----|-12b-12p10----|-12b-12p10----|------------10------------12-10p9-|
*|-11-----------------11-|-----------11-|-----------11-|-11-11p9h11-----------------------|
*|-----------------------|--------------|--------------|----------------------------------|
*|-----------------------|--------------|--------------|----------------------------------|
*|-----------------------|--------------|--------------|----------------------------------|

*|-----------------------|--------------|----------------|
*|----10h12-12b-12p10----|-12b-12p10----|---------10-----|
*|-11-----------------11-|-----------11-|-11p9h11----11~-|
*|-----------------------|--------------|----------------|
*|-----------------------|--------------|----------------|
*|-----------------------|--------------|----------------|   end.....


Ledger:
h          hammer on
p          pull off
b          bend
fb         full bend
~          let ring
_          chord run for 2 measures
/          slide
    break then proceed to next chord
(chord)    chord optional
[chord]    chord palm-muted
F#5no.3    F# in one octave higher  = x,9,11,x,x,x
F#5/no.3   x,9.10,x,x,x  or  x,9,10,10,10,x

that's the whole song...
please rate and I hope you enjoy this awesome song...
if you have comments, suggestions or questions just post on my facebook wall: 
bwahaha_13@yahoo.com....
Tap to rate this tab
 
# A B C D E F G H I J K L M N O P Q R S T U V W X Y Z