Scandal - Sakura Goodbye tab

Sakura Goodbye
by Scandal


Tuning:
      Guitar1: Standard Tuning (EADGBe)
      Guitar2: Standard Tuning (EADGBe)

Intro:

 Guitar2:
     Bb5-A5-G5-D5--|F5
     Bb5-A5-G5-----|F5

 Guitar1:
*|---------------------------|
*|--10-10-13-10-11-10-10-10--|
*|--10-10-10-10-10-10-12-10--|
*|--10-10-10-10-10-10-10-10--|
*|---------------------------|
*|---------------------------|


Verse:

 Guitar2&1:
     [Bb5-A5-G5-F5--| (x2)
     Bb-5A5-G5------|F5

Chorus:

 Guitar2:
     Bb5-A5-G5-F5-| (x2)
     Bb-5A5-G5----|F5
 Guitar1:
*|----------------------|------------------------|
*|--x-x-10-x-11-10-x-10-|--10-13-13-11-10-10-10--|
*|--x-x-10-x-10-10-x-10-|--10-10-10-10-10-12-10--|
*|--x-x-10-x-10-10-x-10-|--10-10-10-10-10-10-10--|
*|----------------------|------------------------|
*|----------------------|------------------------|
4x


*|----------------------|-------------------|
*|--x-x-10-x-11-10-x-10-|-------------------|
*|--x-x-10-x-10-10-x-10-|-10-10--12--12/14~-|
*|--x-x-10-x-10-10-x-10-|-------------------|
*|----------------------|-------------------|
*|----------------------|-------------------|


Verse2:

 Guitar2:
     [Bb5-A5-G5-F5--| (x2)
     Bb-5A5-G5------|F5


 Guitar1:
*|--------3-1-------|-3~---1~-|---------|
*|------1-----1-----|-3~---1~-|----6----|
*|----2-------------|-3~---2~-|--5---5~-|
*|--3-----------3/5-|-5~---3~-|---------|
*|------------------|---------|---------|
*|------------------|---------|---------|

followed by...
     Bb5-A5-G5--|F5
     Bb5-A5-G5--|F5


Bridge:


D5-C5-F5
G5-C5F5
D5-C5-F5-G5
Bb5-G5-A5


(repeat chorus)
(repeat intro)

Last Riff:

 Guitar2:
     Bb5-A5-G5-D5--|F5
     Bb5-A5-G5-----|F5


 Guitar1:
*|--13-13-15-13-13-17-13-13--|
*|--13-13-13-13-13-13-13-13--|
*|---------------------------|
*|---------------------------|
*|---------------------------|
*|---------------------------|


Ledger:
~          let ring
[c]        chord played down stroke only
/          slide
Guitar1    Mami Sasazaki's guitar
Guitar2    Haruna Ono's guitar


there you have it!!!
its an easy song
just listen to the song to get the right timing...

if you have questions, suggestions or comments kindly post it on my facebook wall: 
bwahaha_13@yahoo.com
please visit my blog for you to see some of my Tabs... juliusabay.blogspot.com

please rate if you would mind...
thanks!!
happy playing!!
Tap to rate this tab
 
# A B C D E F G H I J K L M N O P Q R S T U V W X Y Z