Song name
# A B C D E F G H I J K L M N O P Q R S T U V W X Y Z

Scandal - Shoujo S tab

Shoujo S
Scandal



Tuning: Standard (EADGBe)


Intro:
1st Riff
*|---------11--------------------|---------|-x--x--x--x---x--x--x--x--||
*|------------11p9-11-9-11-11b-9-|---------|-11-11-13-14--14-13-11-11-|
*|-8/10-10-----------------------|-10p8h10-|-11-11-13-14--14-13-11-11-|
*|-------------------------------|---------|--------------------------|
*|-------------------------------|---------|--------------------------|
*|-------------------------------|---------|--------------------------|

*|----11--------------------|---------|-x--x--x--x---x--x--x--x--|
*|-------11p9-11-9-11-11b-9-|---------|-11-11-13-14--14-13-11-11-|
*|-10-----------------------|-10p8h10-|-11-11-13-14--14-13-11-11-|
*|--------------------------|---------|--------------------------|
*|--------------------------|---------|--------------------------|
*|--------------------------|---------|--------------------------|

Verse:
 Eb5-F#5-G#5-B5
 Eb5-F#5-G#5-B5
 Eb5-F#5-G#5-B5
 Eb5-F#5-G#5-B5
 Eb5-F#5-G#5-B5
 Eb5-F#5-G#5-B5
 Eb5-F#5-G#5-B5
 Eb5-F#5-G#5-B5

Refrain: (i guess)
 B5-F#5-G#5-F#5
 B5-F#5-G#5-Bb5

Refrain's Last Riff:
*|------------------|
*|------------------|
*|---------------17-|
*|------15-17-17----|
*|-6/13-------------|
*|------------------|

Chorus:
 Eb5-F#5-G#5-B5
 Eb5-F#5-G#5-B5
 Eb5-F#5-G#5-B5
 Eb5-F#5-G#5-B5
 B5-C#5-Eb5-G#5
 
then:...
*|----------------------|
*|-10b-10b-10p8---------|
*|--------------10p8h10-|
*|----------------------|
*|----------------------|
*|----------------------|

Intstrumentals1:
*|------11--------------------|---------|-x--x--x--x---x--x--x--x--|
*|---------11p9-11-9-11-11b-9-|---------|-11-11-13-14--14-13-11-11-|
*|-(10)-----------------------|-10p8h10-|-11-11-13-14--14-13-11-11-|
*|----------------------------|---------|--------------------------|
*|----------------------------|---------|--------------------------|
*|----------------------------|---------|--------------------------|




Interlude:
*|-------|---------|-------------------|
*|-------|---------|-------------------|
*|-------|---------|-------------------|
*|-----8-|-------7-|-------------------|
*|-6-6---|-0-5-5---|-0-4-4-4-4-4---4-5-|
*|-------|---------|-------------6-----|

*|-------|---------|-------------------|
*|-------|---------|-------------------|
*|-------|---------|-------------------|
*|-----8-|-------7-|-------------------|
*|-6-6---|-0-5-5---|-0-4-4-4-4-4---4-5-|
*|-------|---------|-------------6-----|

*|-------|---------|-------------------|
*|-------|---------|-------------------|
*|-------|---------|-------------------|
*|-----8-|-------7-|-------------------|
*|-6-6---|-0-5-5---|-0-4-4-4-4-4---4-5-|
*|-------|---------|-------------6-----|

*|-------|---------|-------------------|
*|-------|---------|-------------------|
*|-------|---------|-------------------|
*|-----8-|-------7-|-------------------|
*|-6-6---|-0-5-5---|-0-4-4-4-4-4---4-5-|
*|-------|---------|-------------6-----|

then:...
*|-------------------------------------------------------------------------------------|
*|-------------------------------------------------------------------------------------|
*|-8-8-8-8-8/10-10-10-10-10-10/11-11-11-11-11/13-13-13-13-13/15-15-15-15-15-15----15/+-|
*|-x-x-x-x-x-x--x--x--x--x--x--x--x--x--x--x--x--x--x--x--x--x--x--x--x--x--x-----x----|
*|-6-6-6-6-6/8--8--8--8--8--8/-9--9--9--9--9/-11-11-11-11-11/13-13-13-13-13-13----13/+-|
*|-------------------------------------------------------------------------------------|
 Nan   nen  tatte   mo  itsu   ni   natte   mo   yame   nai   de

Chorus2:
 G#5-B5-F#5-G#5-B5 (pause)
 G#5-B5-F#5-G#5-B5
 B5-C#5-Eb5-G#5

then:...
*|------------------|
*|------------------|
*|---------------18-|
*|------16-18-18----|
*|-7/14-------------|
*|------------------|

Chorus3:
 E5-G5-A5-C5
 E5-G5-A5-C5
 E5-G5-A5-C5
 E5-G5-A5-C5
 C5-D5-E5-A5

then:...
*|----------------------|
*|-11b-11b-11p9---------|
*|--------------11p9h11-|
*|----------------------|
*|----------------------|
*|----------------------|

Outro:
*|------11--------------------|---------|-x--x--x--x---x--x--x--x--|
*|---------11p9-11-9-11-11b-9-|---------|-11-11-13-14--14-13-11-11-|
*|-(10)-----------------------|-10p8h10-|-11-11-13-14--14-13-11-11-|
*|----------------------------|---------|--------------------------|
*|----------------------------|---------|--------------------------|
*|----------------------------|---------|--------------------------|

*|----11--------------------|---------|-x--x--x--x---x--x--x--x--|
*|-------11p9-11-9-11-11b-9-|---------|-11-11-13-14--14-13-11-11-|
*|-10-----------------------|-10p8h10-|-11-11-13-14--14-13-11-11-|
*|--------------------------|---------|--------------------------|
*|--------------------------|---------|--------------------------|
*|--------------------------|---------|--------------------------|

*|----11--------------------|---------|-x--x--x--x---x--x--x--x--|
*|-------11p9-11-9-11-11b-9-|---------|-11-11-13-14--14-13-11-11-|
*|-10-----------------------|-10p8h10-|-11-11-13-14--14-13-11-11-|
*|--------------------------|---------|--------------------------|
*|--------------------------|---------|--------------------------|
*|--------------------------|---------|--------------------------|

end........



Ledger:

p           pull off
h           hammer on
(n)         optional/ignore (hehehe)
x           dead string
/           slide 

whew...
another scandalicious song... hahaha
i hope you like it!!!
it's quite easy to play
just focus on the right timing
especially on the last parts..
just refer to the song for the right timing ok?


again for questions, suggestions, comments please kindly post it here
or on my facebook wall: bwahaha_13@yahoo.com
you can also visit my blog: juliusabay.blogspot.com for some Tab and updates..

again ang again thanks a lot!!!
happy playing!!!
Tap to rate this tab
 
# A B C D E F G H I J K L M N O P Q R S T U V W X Y Z