Scandal - Shoujo S tab

Shoujo S





-Intro-

   Q E.  E.  E  E   E  E E  +Q   E  E  E E     Q  S S S E  E  E.   E  E  E   +Q   E  Q.
*||-------11-------|-------------------------|--------------------|--------------|-------|
*||-----------11p9-|-11p9h11-11b-p9----------|--11-x-x-x-11-13-14-|-14-13-11--11-|-13p11-|
*||-8h10-----------|-----------------10p8-10-|--11-x-x-x-11-13-14-|-14-13-11--11-|-13p11-|
*||----------------|-------------------------|--------------------|--------------|-------|
*||----------------|-------------------------|--------------------|--------------|-------|
*||----------------|-------------------------|--------------------|--------------|-------|

   Q  E.  E  E.  E  E E  +Q   E  E  E E    Q  S S S E  E  E.   E  E  E   +Q
*|----11-------|-------------------------|-------------------|--------------|
*|--------11p9-|-11p9h11-11b-p9----------|-11-x-x-x-11-13-14-|-14-13-11--11-|
*|-10----------|-----------------10p8-10-|-11-x-x-x-11-13-14-|-14-13-11--11-|
*|-------------|-------------------------|-------------------|--------------|
*|-------------|-------------------------|-------------------|--------------|
*|-------------|-------------------------|-------------------|--------------|


-Verse-

    Q..  E E   Q..  E E   Q..  Q +E E E
*|-----|----------|----------|----------|
*|-----|----------|----------|----------|
*|-----|----------|----------|----------|
*|-<8>-|-x-x--<4>-|-x-x--<6>-|-9--9-9-9-|
*|-<6>-|-x-x--<4>-|-x-x--<6>-|-9--9-9-9-|
*|-----|-x-x--<2>-|-x-x--<4>-|-7--7-7-7-|
  Eb7   F#5        G#5        B5

    Q..  E E   Q..  E E   Q..  Q +E E E
*|-----|----------|----------|----------|
*|-----|----------|----------|----------|
*|-----|----------|----------|----------|
*|-<8>-|-x-x--<4>-|-x-x--<6>-|-9--9-9-9-|
*|-<6>-|-x-x--<4>-|-x-x--<6>-|-9--9-9-9-|
*|-----|-x-x--<2>-|-x-x--<4>-|-7--7-7-7-|
  Eb7   F#5        G#5        B5

    Q..  E E   Q..  E E   Q..  Q +E E E
*|-----|----------|----------|----------|
*|-----|----------|----------|----------|
*|-----|----------|----------|----------|
*|-<8>-|-x-x--<4>-|-x-x--<6>-|-9--9-9-9-|
*|-<6>-|-x-x--<4>-|-x-x--<6>-|-9--9-9-9-|
*|-----|-x-x--<2>-|-x-x--<4>-|-7--7-7-7-|
  Eb7   F#5        G#5        B5

    Q..  E E   Q..  E E   Q..  Q +E E E
*|-----|----------|----------|----------|-----|
*|-----|----------|----------|----------|-----|
*|-----|----------|----------|----------|-+/+-|
*|-<8>-|-x-x--<4>-|-x-x--<6>-|-9--9-9-9-|-+/+-|
*|-<6>-|-x-x--<4>-|-x-x--<6>-|-9--9-9-9-|-+/+-|
*|-----|-x-x--<2>-|-x-x--<4>-|-7--7-7-7-|-+/+-|
  Eb7   F#5        G#5        B5

   Q  E   Q  E E  E   Q  E E  E   Q  E E  E E
*|------|-----------|-----------|-------------|
*|------|-----------|-----------|-------------|
*|------|-----------|-----------|-------------|
*|-8--8-|-4--4-4--4-|-6--6-6--6-|-4--4-4--4-4-|
*|-6--6-|-4--4-4--4-|-6--6-6--6-|-2--2-2--2-2-|
*|------|-2--2-2--2-|-4--4-4--4-|-------------|
  Eb5    F#5         G#5         B5

   Q  E   Q  E E  E   Q  E E  E   Q  E E  E E
*|------|-----------|-----------|-------------|
*|------|-----------|-----------|-------------|
*|------|-----------|-----------|-------------|
*|-8--8-|-4--4-4--4-|-6--6-6--6-|-4--4-4--4-4-|
*|-6--6-|-4--4-4--4-|-6--6-6--6-|-2--2-2--2-2-|
*|------|-2--2-2--2-|-4--4-4--4-|-------------|
  Eb5    F#5         G#5         B5

   Q  E   Q  E E  E   Q  E E  E   Q  E E  E E
*|------|-----------|-----------|-------------|
*|------|-----------|-----------|-------------|
*|------|-----------|-----------|-------------|
*|-8--8-|-4--4-4--4-|-6--6-6--6-|-4--4-4--4-4-|
*|-6--6-|-4--4-4--4-|-6--6-6--6-|-2--2-2--2-2-|
*|------|-2--2-2--2-|-4--4-4--4-|-------------|
  Eb5    F#5         G#5         B5

   Q  E   Q  E E  E   Q  E E  E   Q  E E  E E
*|------|-----------|-----------|-------------|
*|------|-----------|-----------|-------------|
*|------|-----------|-----------|-------------|
*|-8--8-|-4--4-4--4-|-6--6-6--6-|-4--4-4--4-4-|
*|-6--6-|-4--4-4--4-|-6--6-6--6-|-2--2-2--2-2-|
*|------|-2--2-2--2-|-4--4-4--4-|-------------|
  Eb5    F#5         G#5         B5


-Refrain-

  +Q  E E E  E   Q  E E E  E   Q  E E E  E   Q  E E E  E
*|-------------|-------------|-------------|-------------|
*|-------------|-------------|-------------|-------------|
*|-------------|-------------|-------------|-------------|
*|-4--4-4-4--4-|-4--4-4-4--4-|-6--6-6-6--6-|-4--4-4-4--4-|
*|-2--2-2-2--2-|-4--4-4-4--4-|-6--6-6-6--6-|-4--4-4-4--4-|
*|-------------|-2--2-2-2--2-|-4--4-4-4--4-|-2--2-2-2--2-|
  B5            F#5           G#5           F#5

   Q  E E E  E   Q  E E E  E   Q  E E E  E   Q E.E.E.E.   +Q  E  E  E  Q.
*|-------------|-------------|-------------|-----------|-------------------|
*|-------------|-------------|-------------|-----------|-------------------|
*|-------------|-------------|-------------|-----------|---------------17~-|
*|-4--4-4-4--4-|-4--4-4-4--4-|-6--6-6-6--6-|-8-8-8-8-8-|---------15h17-----|
*|-2--2-2-2--2-|-4--4-4-4--4-|-6--6-6-6--6-|-8-8-8-8-8-|-+/13-13-----------|
*|-------------|-2--2-2-2--2-|-4--4-4-4--4-|-6-6-6-6-6-|-------------------|
  B5            F#5           G#5           Bb5


-Chorus-

   Q  E   Q  E E  E   Q  E E  E   Q  E E  E
*|------|-----------|-----------|-----------|
*|------|-----------|-----------|-----------|
*|------|-----------|-----------|-----------|
*|-8--8-|-4--4-4--4-|-6--6-6--6-|-9--9-9--9-|
*|-6--6-|-4--4-4--4-|-6--6-6--6-|-9--9-9--9-|
*|------|-2--2-2--2-|-4--4-4--4-|-7--7-7--7-|
  Eb5     F#5         G#5         B5

   Q  E   Q  E E  E   Q  E E  E   Q  E E  E
*|------|-----------|-----------|-----------|
*|------|-----------|-----------|-----------|
*|------|-----------|-----------|-----------|
*|-8--8-|-4--4-4--4-|-6--6-6--6-|-9--9-9--9-|
*|-6--6-|-4--4-4--4-|-6--6-6--6-|-9--9-9--9-|
*|------|-2--2-2--2-|-4--4-4--4-|-7--7-7--7-|
  Eb5     F#5         G#5         B5

   Q  E   Q  E E  E   Q  E E  E   Q  E E  E
*|------|-----------|-----------|-----------|
*|------|-----------|-----------|-----------|
*|------|-----------|-----------|-----------|
*|-8--8-|-4--4-4--4-|-6--6-6--6-|-9--9-9--9-|
*|-6--6-|-4--4-4--4-|-6--6-6--6-|-9--9-9--9-|
*|------|-2--2-2--2-|-4--4-4--4-|-7--7-7--7-|
  Eb5     F#5         G#5         B5

   Q  E   Q  E E  E   Q  E E  E   Q  E E  E
*|------|-----------|-----------|-----------|
*|------|-----------|-----------|-----------|
*|------|-----------|-----------|-----------|
*|-8--8-|-4--4-4--4-|-6--6-6--6-|-9--9-9--9-|
*|-6--6-|-4--4-4--4-|-6--6-6--6-|-9--9-9--9-|
*|------|-2--2-2--2-|-4--4-4--4-|-7--7-7--7-|
  Eb5     F#5         G#5         B5

   Q  E E E  E   Q  E E E  E   Q  E E E E    Q  E E E  E   Q  E E E  E
*|-------------|-------------|-------------|-------------|-------------|
*|-------------|-------------|-------------|-------------|-------------|
*|-------------|-------------|-------------|-------------|-------------|
*|-9--9-9-9--9-|-6--6-6-6--6-|-8--8-8-8--8-|-6--6-6-6--6-|-8--8-8-8--8-|
*|-9--9-9-9--9-|-4--4-4-4--4-|-6--6-6-6--6-|-6--6-6-6--6-|-8--8-8-8--8-|
*|-7--7-7-7--7-|-------------|-------------|-4--4-4-4--4-|-6--6-6-6--6-|
  B5            C#5           Eb5           G#5           Bb5

   H  +Q    E   E E  E Q.
*|------------------------|
*|-11b-11b--11-p9---------|
*|----------------10p8h10-|
*|------------------------|
*|------------------------|
*|------------------------|


-Interlude-

   E. E  E.  E  E E +Q    E E  E E    Q  S S S E  E  E.   E  E  E  +Q
*|-11------|------------------------|-------------------|--------------|
*|----11p9-|-11p9-11-11b-p9---------|-11-x-x-x-11-13-14-|-14-13-11--11-|
*|---------|----------------10p8-10-|-11-x-x-x-11-13-14-|-14-13-11--11-|
*|---------|------------------------|-------------------|--------------|
*|---------|------------------------|-------------------|--------------|
*|---------|------------------------|-------------------|--------------|




-Guitar Solo Riff-

   E E E   E+E E E   E+E E E E E E E E
*|-------|---------|-------------------|
*|-------|---------|-------------------|
*|-------|---------|-------------------|
*|-----8-|-------7-|-------------------|
*|-6-6---|-6/5-5---|-5/4-4-4-4-4---4h5-|
*|-------|---------|-------------5-----|

   E E E   E+E E E   E+E E E E E E E E
*|-------|---------|-------------------|
*|-------|---------|-------------------|
*|-------|---------|-------------------|
*|-----8-|-------7-|-------------------|
*|-6-6---|-6/5-5---|-5/4-4-4-4-4---4h5-|
*|-------|---------|-------------5-----|

   E E E   E+E E E   E+E E E E E E E E
*|-------|---------|-------------------|
*|-------|---------|-------------------|
*|-------|---------|-------------------|
*|-----8-|-------7-|-------------------|
*|-6-6---|-6/5-5---|-5/4-4-4-4-4---4h5-|
*|-------|---------|-------------5-----|

   E E E   E+E E E   E+E E E E E E E E
*|-------|---------|-------------------|
*|-------|---------|-------------------|
*|-------|---------|-------------------|
*|-----8-|-------7-|-------------------|
*|-6-6---|-6/5-5---|-5/4-4-4-4-4---4h5-|
*|-------|---------|-------------5-----|

   Q+E E  +E  E  E   +E  E  E   +E  E  E   +E  E  E  E  E     Q..
*|-------|----------|----------|----------|----------------|--------|-----|
*|-------|----------|----------|----------|----------------|--------|-----|
*|-8-8-8-|-10-10-10-|-11-11-11-|-13-13-13-|-15-15-15-15-15-|-<15>/+-|-+/+-|
*|-x-x-x-|-x--x--x--|-x--x--x--|-x--x--x--|-x--x--x--x--x--|--x-----|-+/+-|
*|-6-6-6-|-8--8--8--|-9--9--9--|-11-11-11-|-13-13-13-13-13-|-<13>/+-|-+/+-|
*|-------|----------|----------|----------|----------------|--------|-+/+-|


-Chorus2-

                    Q  E E   Q  E E   Q  E E   Q  E E   Q  E  Q..
*|--------|-------|--------|--------|--------|--------|----------|-----|
*|--------|-------|--------|--------|--------|--------|----------|-----|
*|--------|-------|--------|--------|--------|--------|----------|-+/+-|
*|--------|-------|-6--6-6-|-9--9-9-|-4--4-4-|-6--6-6-|-9--9-<9>-|-+/+-|
*|--------|-------|-6--6-6-|-9--9-9-|-4--4-4-|-6--6-6-|-9--9-<9>-|-+/+-|
*|--------|-------|-4--4-4-|-7--7-7-|-2--2-2-|-4--4-4-|-7--7-<7>-|-+/+-|
                   G#5      B5       F#5      G#5      B5

                    Q  E E   Q  E E   Q  E E   Q  E E   Q  E E E  E
*|--------|-------|--------|--------|--------|--------|-------------|
*|--------|-------|--------|--------|--------|--------|-------------|
*|--------|-------|--------|--------|--------|--------|-------------|
*|--------|-------|-6--6-6-|-9--9-9-|-4--4-4-|-6--6-6-|-9--9-9-9--9-|
*|--------|-------|-6--6-6-|-9--9-9-|-4--4-4-|-6--6-6-|-9--9-9-9--9-|
*|--------|-------|-4--4-4-|-7--7-7-|-2--2-2-|-4--4-4-|-7--7-7-7--7-|
                   G#5      B5       F#5      G#5      B5

   Q  E E E  E   Q  E E   Q  E E E  E   E.E.E.E.E.   +Q  E  E  E  Q.
*|-------------|--------|-------------|-----------|-------------------|
*|-------------|--------|-------------|-----------|-------------------|
*|-------------|--------|-------------|-----------|---------------18~-|
*|-9--9-9-9--9-|-6--6-6-|-8--8-8-8--8-|-9-9-9-9-9-|---------16h18-----|
*|-9--9-9-9--9-|-6--6-6-|-8--8-8-8--8-|-9-9-9-9-9-|-+/14-14-----------|
*|-7--7-7-7--7-|-4--4-4-|-6--6-6-6--6-|-7-7-7-7-7-|-------------------|
  B5            G#5      Bb5           B5


-Chorus3-

   Q  E   Q  E E E   Q  E E E   Q  E E E  E
*|------|----------|----------|-------------|
*|------|----------|----------|-------------|
*|------|----------|----------|-------------|
*|-9--9-|-5--5-5-5-|-7--7-7-7-|-5--5-5-5--5-|
*|-7--7-|-5--5-5-5-|-7--7-7-7-|-3--3-3-3--3-|
*|------|-3--3-3-3-|-5--5-5-5-|-------------|
  E5     G5         A5         C5

   Q  E   Q  E E E   Q  E E E   Q  E E E  E
*|------|----------|----------|-------------|
*|------|----------|----------|-------------|
*|------|----------|----------|-------------|
*|-9--9-|-5--5-5-5-|-7--7-7-7-|-5--5-5-5--5-|
*|-7--7-|-5--5-5-5-|-7--7-7-7-|-3--3-3-3--3-|
*|------|-3--3-3-3-|-5--5-5-5-|-------------|
  E5     G5         A5         C5

   Q  E   Q  E E E   Q  E E E   Q  E E E  E
*|------|----------|----------|-------------|
*|------|----------|----------|-------------|
*|------|----------|----------|-------------|
*|-9--9-|-5--5-5-5-|-7--7-7-7-|-5--5-5-5--5-|
*|-7--7-|-5--5-5-5-|-7--7-7-7-|-3--3-3-3--3-|
*|------|-3--3-3-3-|-5--5-5-5-|-------------|
  E5     G5         A5         C5

   Q  E   Q  E E E   Q  E E E   Q  E E E  E
*|------|----------|----------|-------------|
*|------|----------|----------|-------------|
*|------|----------|----------|-------------|
*|-9--9-|-5--5-5-5-|-7--7-7-7-|-5--5-5-5--5-|
*|-7--7-|-5--5-5-5-|-7--7-7-7-|-3--3-3-3--3-|
*|------|-3--3-3-3-|-5--5-5-5-|-------------|
  E5     G5         A5         C5

   Q  E E E  E   Q  E E E  E   Q  E E E  E   Q  E E E  E   Q  E.E.E.E.E.
*|-------------|-------------|-------------|-------------|--------------|
*|-------------|-------------|-------------|-------------|--------------|
*|-------------|-------------|-------------|-------------|--------------|
*|-5--5-5-5--5-|-7--7-7-7--7-|-9--9-9-9--9-|-7--7-7-7--7-|-9--9-9-9-9-9-|
*|-3--3-3-3--3-|-5--5-5-5--5-|-7--7-7-7--7-|-7--7-7-7--7-|-9--9-9-9-9-9-|
*|-------------|-------------|-------------|-5--5-5-5--5-|-7--7-7-7-7-7-|
  C5            D5            E5            A5            B5

   H   +Q   E   E E  E E
*|-----------------------|
*|-11b-11b--11-p9--------|
*|----------------10p8-10|
*|-----------------------|
*|-----------------------|
*|-----------------------|

-Outro-


   Q E.  E.  E  E   E  E E  +Q   E  E  E E     Q  S S S E  E  E.   E  E  E   +Q   E  Q.
*|-------11-------|-------------------------|--------------------|--------------|-------|
*|-----------11p9-|-11p9h11-11b-p9----------|--11-x-x-x-11-13-14-|-14-13-11--11-|-13p11-|
*|-8h10-----------|-----------------10p8-10-|--11-x-x-x-11-13-14-|-14-13-11--11-|-13p11-|
*|----------------|-------------------------|--------------------|--------------|-------|
*|----------------|-------------------------|--------------------|--------------|-------|
*|----------------|-------------------------|--------------------|--------------|-------|

   Q  E.  E  E.  E  E E  +Q   E  E  E E    Q  S S S E  E  E.   E  E  E   +Q
*|----11-------|-------------------------|-------------------|--------------|
*|--------11p9-|-11p9h11-11b-p9----------|-11-x-x-x-11-13-14-|-14-13-11--11-|
*|-10----------|-----------------10p8-10-|-11-x-x-x-11-13-14-|-14-13-11--11-|
*|-------------|-------------------------|-------------------|--------------|
*|-------------|-------------------------|-------------------|--------------|
*|-------------|-------------------------|-------------------|--------------|

   E. E  E.  E  E E +Q    E E  E E    Q  S S S E  E  E.   E  E  E  +Q
*|-11------|------------------------|-------------------|------------- -||
*|----11p9-|-11p9-11-11b-p9---------|-11-x-x-x-11-13-14-|-14-13-11--11~-||
*|---------|----------------10p8-10-|-11-x-x-x-11-13-14-|-14-13-11--11~-||
*|---------|------------------------|-------------------|------------ --||
*|---------|------------------------|-------------------|------------ --||
*|---------|------------------------|-------------------|------------ --||   end...

-Ledger-

h                    hammer on
p                    pull off
~                    let ring
 or     break
/                    slide
+/ or /+             slide from/to nowhere
          do alternate picking or tremolo picking for the whole measure
(n) or (n-n-n...)    palm muted
*/ or /*             scrape pick down the strings
x	             dead string
b                    bend
qb                   quarter bend
hb                   half bend
fb                   full bend
                 whole measure is played in full bend
                 whole measure is played in half bend
                 whole measure is played in quarter bend
                  whole measure was supposed to be bent
         whole measure indicated was in palm mute
(hold)               hold
               hold for whole measure
(break)              break


whew...
thats all
pretty easy right?
just focus on timings..
again for some questions, suggestions, comments, just post it in my facebook wall:
 bwahaha_13@yahoo.com
for some updates and some tab related to this one
you can visit my blog: http://bwahaha13.multiply.com/
again thanks!!!
happy playing!!
Tap to rate this tab
 
# A B C D E F G H I J K L M N O P Q R S T U V W X Y Z