Song name
# A B C D E F G H I J K L M N O P Q R S T U V W X Y Z

Scandal - Nanka Buttobase tab

Nanka Buttobase
-Scandal-





-Intro-

               
*|----------|-----------------------------------|-14---------|
*|----------|------------11-14b-14-14b--14-14/+-|----16------|
*|----------|------11-13------------------------|-------15/+-|
*|----------|-+/13------------------------------|------------|
*|----------|-----------------------------------|------------|
*|----------|-----------------------------------|------------|
   

   
*|-------------------|----------------|
*|-------------------|-14-14---14--14-|
*|-------11-13h14-14-|-13-13---13--13-|
*|----13-------------|-x--x----x---x--|
*|-14----------------|-13-13---13--13-|
*|-------------------|----------------|

   
*|------------------------------|-14---------|-------------------|-------------|
*|------------14b-14-14b--14-14-|----16------|-------------------|-------------|
*|------11-13-------------------|-------15/+-|-------11-13h14-14-|-------------|
*|-+/13-------------------------|------------|----13-------------|-15-15-16-15-|
*|------------------------------|------------|-14----------------|-13-13-14-13-|
*|------------------------------|------------|-------------------|-------------|




-Verse-


*|-------|-------|-------|-------|------------|
*|-------|-------|-------|-------|------------|
*|-------|-------|-------|-------|-13-12-10-8-|
*|-<8>/+-|-<6>/+-|-<6>/+-|-<8>/+-|-x--x--x--x-|
*|-<6>/+-|-<6>/+-|-<6>/+-|-<8>/+-|-11-10-8--6-|
*|-------|-<4>/+-|-<4>/+-|-<6>/+-|------------|
  Eb5     G#5             Bb5

   
*|-------|-------|-------|-------|-----|
*|-------|-------|-------|-------|-----|
*|-------|-------|-------|-------|-----|
*|-<8>/+-|-<6>/+-|-<6>/+-|-<8>/+-|-<8>-|
*|-<6>/+-|-<6>/+-|-<6>/+-|-<8>/+-|-<6>-|
*|-------|-<4>/+-|-<4>/+-|-<6>/+-|-----|
  Eb5     G#5             Bb5     Eb5

 
*|------------|------------|----------|------------|
*|------------|------------|-6-6--6-6-|------------|
*|------------|------------|-6-6--6-6-|------------|
*|-6-6--6-6-6-|-8-8--8-8-8-|-6-6--6-6-|-4-4--4-4-4-|
*|-6-6--6-6-6-|-8-8--8-8-8-|----------|-4-4--4-4-4-|
*|-4-4--4-4-4-|-6-6--6-6-6-|----------|-2-2--2-2-2-|
  G#5          Bb5          C#         F#5

  
*|------------|------------|-5--5--5-5-5--5--5-5-5-|----------|----------------|
*|------------|------------|-5--5--5-5-5--5--5-5-5-|----------|----------------|
*|------------|------------|-5--5--5-5-5--5--5-5-5-|----------|-3--3-5-5-6-6-7-|
*|-6-6--6-6-6-|-4-4--4-4-4-|-----------------------|-3-3--3-3-|-x--x-x-x-x-x-x-|
*|-6-6--6-6-6-|-4-4--4-4-4-|-----------------------|-1-1--1-1-|-1--1-3-3-4-4-5-|
*|-4-4--4-4-4-|-2-2--2-2-2-|-----------------------|----------|----------------|
  G#5          F#5          EM7                     Bb




-Refrain- (i guess...)


*|-6--6-6-6-6--6--6-6-6-6-|------------------------|
*|-7--7-7-7-7--7--7-7-7-7-|-4--4-4-4-4--4--4-4-4-4-|
*|-8--8-8-8-8--8--8-8-8-8-|-4--4-4-4-4--4--4-4-4-4-|
*|-8--8-8-8-8--8--8-8-8-8-|-6--6-6-6-6--6--6-6-6-6-|
*|-6--6--------6--6-----6-|-6--6-6-6-6--6--6-6-6-6-|
*|------------------------|-4--4-4-4-4--4--4-4-4-4-|
  Ebm                      G#m

  
*|------------------------|---------------------|-------------|
*|-6--6-6-6-6--6--6-6-6-6-|-2--2-2-2--2--2-2-2--|-------------|
*|-6--6-6-6-6--6--6-6-6-6-|-3--3-3-3--3--3-3-3--|-------------|
*|-6--6-6-6-6--6--6-6-6-6-|-4--4-4-4--4--4-4-4--|-3--3-3-3--3-|
*|------------------------|-4--4-4-4--4--4-4-4--|-1--1-1-1--1-|
*|------------------------|-2--2-2-2--2--2-2-2--|-------------|
  C#                       F#                    Bb5



-Chorus-


*|---------------------|----------|----------|-----|
*|---------------------|----------|----------|-----|
*|---------------------|----------|----------|-----|
*|-6~--6--6---6~--6--6-|-4~--4--4-|-6~--6--6-|-<3>-|
*|-6~--6--6---6~--6--6-|-4~--4--4-|-6~--6--6-|-<3>-|
*|-4~--4--4---4~--4--4-|-2~--2--2-|-4~--4--4-|-<1>-|
  G#5        F#5        G#5        F5
 
   
*|-------------|---------------|-----------------|---------------|
*|-------------|---------------|-----------------|---------------|
*|-------------|---------------|-----------------|---------------|
*|-<8>-x-x-x-x-|-9/<8>-x-x-x-x-|-3~-/<8>-x-x-x-x-|-9/<8>-x-x-x-x-|
*|-<8>-x-x-x-x-|-9/<8>-x-x-x-x-|-3~-/<8>-x-x-x-x-|-9/<8>-x-x-x-x-|
*|-<6>-x-x-x-x-|-7/<6>-x-x-x-x-|-1~-/<6>-x-x-x-x-|-7/<6>-x-x-x-x-|
  Bb5           B5 Bb5          F5   Bb5           B5 Bb5
  
  
*|--------------------|--------------------|
*|--------------------|--------------------|
*|--------------------|--------------------|
*|-8--8-8-8--8--8-8-8-|-6--6-6-6--6--6-6-6-|
*|-6--6-6-6--6--6-6-6-|-6--6-6-6--6--6-6-6-|
*|--------------------|-4--4-4-4--4--4-4-4-|
  Eb5                  G#5

  
*|--------------------|--------------------|----------|
*|--------------------|--------------------|----------|
*|--------------------|--------------------|----------|
*|-8--8-8-8--8--8-8-8-|-6--6-6-6--6--6-6-6-|----------|
*|-6--6-6-6--6--6-6-6-|-6--6-6-6--6--6-6-6-|-8--8-8-8-|
*|--------------------|-4--4-4-4--4--4-4-4-|-6--6-6-6-|
  Eb5                  G#                    Bb5




-Lick1-


   
*|-6-6-6-6-6-6-6-6-|
*|-7-7-7-7-7-7-7-7-|
*|-8-8-8-8-8-8-8-8-|
*|-8-8-8-8-8-8-8-8-|
*|-6-6-6-6-6-6-6-6-|
*|-----------------|
  



-Instrumentals- 



   
*|-----------------------------------|-14---------|---------------------|-------------|
*|------------11-14b-14-14b--14-14/+-|----16------|---------------------|-14-14-15-14-|
*|------11-13------------------------|-------15/+-|-7-7-7-7-7-7-7-7-7-7-|-13-13-14-13-|
*|-+/13------------------------------|------------|-8-8-8-8-8-8-8-8-8-8-|-x--x--x--x--|
*|-----------------------------------|------------|---------------------|-13-13-14-13-|
*|-----------------------------------|------------|---------------------|-------------|
                                                   








-Lick2-
 
*|-----|------|-------|-------|
*|-----|------|-------|-------|
*|-----|------|-------|-------|
*|-8-8-|-4--4-|-6-4-6-|-8-6-8-|
*|-6-6-|-4--4-|-6-4-6-|-8-6-8-|
*|-----|-2--2-|-4-2-4-|-6-4-6-|
  Eb5   F#5    G#5     Bb5



-Guitar Solo-
 


    
*|---------14-13-|-------11-10-|-------------------------------------|
*|------10-------|-----8-------|-15-15-15-15-15p14h15p14-12----12-14-|
*|-+/11----------|-+/9---------|----------------------------14-------|
*|---------------|-------------|-------------------------------------|
*|---------------|-------------|-------------------------------------|
*|---------------|-------------|-------------------------------------|

    
*|---------14-13-|-------11-10-|-------------------------|-------------------------|
*|------10-------|-----8-------|-14-14-14-14-14-14-14-14-|-16-16-16-16-16-16-16-16-|
*|-+/11----------|-+/9---------|-------------------------|-------------------------|
*|---------------|-------------|-------------------------|-------------------------|
*|---------------|-------------|-------------------------|-------------------------|
*|---------------|-------------|-------------------------|-------------------------|
                                               
               
      
     *|-------------------------|-------------------------|
     *|-17-17-17-17-17-17-17-17-|-18-18-18-18-18-18-18-18-|
     *|-------------------------|-------------------------|
     *|-------------------------|-------------------------|
     *|-------------------------|-------------------------|
     *|-------------------------|-------------------------|
                      

  
*|-14-14-14-14-14-14-14-14-|-16-16-16-16-16-16-16-16-|-17-17-17-17-17-17-17-17-|-18~-|
*|-------------------------|-------------------------|-------------------------|-----|
*|-------------------------|-------------------------|-------------------------|-----|
*|-------------------------|-------------------------|-------------------------|-----|
*|-------------------------|-------------------------|-------------------------|-----|
*|-------------------------|-------------------------|-------------------------|-----|
                                               

  
*|-----------------|-----------------|-----------------|
*|-14--14-14-14-14-|-14--14-14-14-14-|-14--14-14-14-14-|
*|-13--13-13-13-13-|-13--13-13-13-13-|-13--13-13-13-13-|
*|-x---x--x--x--x--|-x---x--x--x--x--|-x---x--x--x--x--|
*|-13--13-13-13-13-|-13--13-13-13-13-|-13--13-13-13-13-|
*|-----------------|-----------------|-----------------|



-Last Chorus-


   
*|---------------------|----------|----------|-----|
*|---------------------|----------|----------|-----|
*|---------------------|----------|----------|-----|
*|-6~--6--6---6~--6--6-|-4~--4--4-|-6~--6--6-|-<3>-|
*|-6~--6--6---6~--6--6-|-4~--4--4-|-6~--6--6-|-<3>-|
*|-4~--4--4---4~--4--4-|-2~--2--2-|-4~--4--4-|-<1>-|
  G#5                   F#5        G#5        F5

   
*|-------------|---------------|-----------------|---------------|
*|-------------|---------------|-----------------|---------------|
*|-------------|---------------|-----------------|---------------|
*|-<8>-x-x-x-x-|-9/<8>-x-x-x-x-|-3~-/<8>-x-x-x-x-|-9/<8>-x-x-x-x-|
*|-<8>-x-x-x-x-|-9/<8>-x-x-x-x-|-3~-/<8>-x-x-x-x-|-9/<8>-x-x-x-x-|
*|-<6>-x-x-x-x-|-7/<6>-x-x-x-x-|-1~-/<6>-x-x-x-x-|-7/<6>-x-x-x-x-|
  Bb5           B5 Bb5          F5   Bb5           B5 Bb5
   
  
*|------------|------------|
*|------------|------------|
*|------------|------------|
*|-8--8-8-8-8-|-6--6-6-6-6-|
*|-6--6-6-6-6-|-4--4-4-4-4-|
*|------------|------------|
  Eb5           C#5

   
*|------------|------------|-----|
*|------------|------------|-----|
*|------------|------------|-----|
*|-9--9-9-9-9-|-8--8-8-8-8-|-<9>-|
*|-9--9-9-9-9-|-8--8-8-8-8-|-<7>-|
*|-7--7-7-7-7-|-6--6-6-6-6-|-----|
  B5           Bb5

  
*|------------|----------|-----|-----|---------|
*|------------|----------|-----|-----|---------|
*|------------|----------|-----|-+/+-|---------|
*|-4--4-4-4-4-|-6--6-6-6-|-<8>-|-+/+-|-<4>-<4>-|
*|-4--4-4-4-4-|-6--6-6-6-|-<8>-|-+/+-|-<2>-<2>-|
*|-2--2-2-2-2-|-4--4-4-4-|-<6>-|-+/+-|---------|
  F#5          G#5        Bb5         Bb5



-Lick3-


   
*|-----|------|-------|-------|
*|-----|------|-------|-------|
*|-----|------|-------|-------|
*|-8-8-|-4--4-|-6-4-6-|-8-6-8-|
*|-6-6-|-4--4-|-6-4-6-|-8-6-8-|
*|-----|-2--2-|-4-2-4-|-6-4-6-|
  Eb5   F#5    G#5     Bb5

   
*|-----|------|-------|---------|
*|-----|------|-------|---------|
*|-----|------|-------|---------|
*|-8-8-|-4--4-|-6-6-6-|-8-6-8-6-|
*|-6-6-|-4--4-|-6-6-6-|-8-6-8-6-|
*|-----|-2--2-|-4-4-4-|-6-4-6-4-|
  Eb5   F#5    G#5     Bb5
 


-Outro-


   
*|------------------------------|-14---------|-----------------|---------------|
*|------------14b-14-14b--14-14-|----16------|-----------------|-14-14--14--14-|
*|------11-13-------------------|-------15/+-|-------11-13h14b-|-13-13--13--13-|
*|-+/13-------------------------|------------|----13-----------|-x--x---x---x--|
*|------------------------------|------------|-14--------------|-13-13--13--13-|
*|------------------------------|------------|--- -------------|---------------|

    
*|------------------------------|-14---------|
*|------------14b-14-14b--14-14-|----16------|
*|------11-13-------------------|-------15/+-|
*|-+/13-------------------------|------------|
*|------------------------------|------------|
*|------------------------------|------------|

  
*|----------------------------------------------------------|------|
*|-14-14-14-14-14-14-14-14-14-14-14-14-14-14-14-14-14-14-14-|-<14>-|
*|-13-13-13-13-13-13-13-13-13-13-13-13-13-13-13-13-13-13-13-|-<13>-|
*|-x--x--x--x--x--x--x--x--x--x--x--x--x--x--x--x--x--x--x--|--x---|
*|-13-13-13-13-13-13-13-13-13-13-13-13-13-13-13-13-13-13-13-|-<13>-|
*|----------------------------------------------------------|------|
  

    
*|-+/11---------------------|---------|
*|-------12-----------------|---------|
*|-----------13----9-----8~-|---------|
*|--------------------------|-x-x-<8>-|
*|--------------------------|-x-x-<6>-|
*|--------------------------|---------|     end.....


-Ledger-

h                    hammer on
p                    pull off
~                    let ring
 or     break
/                    slide
+/+                  legato slide
+/ or /+             slide from/to nowhere
          do alternate picking or tremolo picking for the whole measure
(n) or (n-n-n...)    palm muted
*/ or /* or */*      scrape pick down the strings
x	             dead string
b                    bend 
qb                   quarter bend
hb                   half bend
fb                   full bend 
[n]                  (for bass tabs only) tap, slap, pop, or what ever you may call it..hahaha


whew....
another post lol...
btw, my first one doesn't accepted i don't know why...
so i try to repost this tab...
for some updates check out mt blog: bwahaha13.multiply.com
or add me up on facebook: bwahaha_13@yahoo.com
thanks!
Tap to rate this tab
 
# A B C D E F G H I J K L M N O P Q R S T U V W X Y Z