Scandal - Beauteen tab

BeauTEEN!! 
-Scandal-




-Intro-

*|------------------------|----------------------------------|
*|-------------11/13-p11~-|-------------11/13-13/15-p13-p11~-|
*|-----10-----------------|-----10---------------------------|
*|-12------12-------------|-12------12-----------------------|
*|------------------------|----------------------------------|
*|------------------------|----------------------------------|

*|------------------------|--------------------|
*|-------------11/13-p11~-|-8/10-p8------------|
*|-----10-----------------|-----------8/10-p8~-|
*|-12------12-------------|--------------------|
*|------------------------|--------------------|
*|------------------------|--------------------|


-Verse1-

*|-------|----------|-------|-------|
*|-------|----------|-------|-------|
*|-------|----------|-------|-------|
*|-8-<8>-|----3-<3>-|-8-<8>-|-8-<8>-|
*|-8-<8>-|----3-<3>-|-6-<6>-|-8-<8>-|
*|-6-<6>-|----1-<2>-|-------|-6-<6>-|
  Bb5     F5         Eb5     Bb5

*|----------|-------|-------|
*|----------|-------|-------|
*|----------|-------|-------|
*|----3-<3>-|-8-<8>-|-8-<8>-|
*|----3-<3>-|-6-<6>-|-8-<8>-|
*|----1-<2>-|-------|-6-<6>-|
  F5         Eb5     Bb5

*|----------|-------|
*|----------|-------|
*|----------|-------|
*|----3-<3>-|-8-<8>-|
*|----3-<3>-|-6-<6>-|
*|----1-<2>-|-------|
  F5         Eb5

*|-------------|---------------|---------------|---------------|---------------|--------------|
*|-------------|---------------|---------------|---------------|---------------|--------------|
*|-------------|-x-------------|-x-------------|-x-------------|-x-------------|-x------------|
*|-5--5--5-5-5-|-x-3--3--3-3-3-|-x-8--8--8-8-8-|-x-7--7--7-7-7-|-x-5--5--5-5-5-|-x-5--5-5-5-5-|
*|-5--5--5-5-5-|-x-3--3--3-3-3-|-x-6--6--6-6-6-|-x-5--5--5-5-5-|-x-3--3--3-3-3-|-x-3--3-3-3-3-|
*|-3--3--3-3-3-|-x-1--1--1-1-1-|-x-------------|-x-------------|-x-------------|-x------------|
  G5            F5              Eb5             D5              C5 

*|------------|
*|------------|
*|------------|
*|-8--8-8-8~~-|
*|-6--6-6-6~~-|
*|------------|
  Eb5 


-Verse2-

*|-------|---------|--------------|-------|
*|-------|---------|--------------|-------|
*|-------|---------|--------------|-------|
*|-8-<8>-|---8-<8>-|-8-/10-/8-/10-|-8-<8>-|
*|-8-<8>-|---6-<6>-|-6-/8--/6-/8--|-8-<8>-|
*|-6-<6>-|---------|--------------|-6-<6>-|
  Bb5     Eb5       Eb5 F5 Eb5 F5  Bb5

*|---------|--------------|-------|
*|---------|--------------|-------|
*|---------|--------------|-------|
*|---8-<8>-|-8-/10-/8-/10-|-8-<8>-|
*|---6-<6>-|-6-/8--/6-/8--|-8-<8>-|
*|---------|--------------|-6-<6>-|
  Eb5       Eb5 F5 Eb5 F5  Bb5

*|---------|--------------|
*|---------|--------------|
*|---------|--------------|
*|---8-<8>-|-8-/10-/8-/10-|
*|---6-<6>-|-6-/8--/6-/8--|
*|---------|--------------|
  Eb5       Eb5 F5 Eb5 F5  

*|-------------|---------------|---------------|---------------|---------------|--------------|
*|-------------|---------------|---------------|---------------|---------------|--------------|
*|-------------|-x-------------|-x-------------|-x-------------|-x-------------|-x------------|
*|-5--5--5-5-5-|-x-3--3--3-3-3-|-x-8--8--8-8-8-|-x-7--7--7-7-7-|-x-5--5--5-5-5-|-x-5--5-5-5-5-|
*|-5--5--5-5-5-|-x-3--3--3-3-3-|-x-6--6--6-6-6-|-x-5--5--5-5-5-|-x-3--3--3-3-3-|-x-3--3-3-3-3-|
*|-3--3--3-3-3-|-x-1--1--1-1-1-|-x-------------|-x-------------|-x-------------|-x------------|
  G5            F5              Eb5             D5              C5 

*|----------|----------|----------|-----------|
*|----------|----------|-2--2-2-2-|-2--2-2-2~-|
*|----------|----------|-2--2-2-2-|-2--2-2-2~-|
*|-4--4-4-4-|-4--4-4-4-|-2--2-2-2-|-2--2-2-2~-|
*|-4--4-4-4-|-4--4-4-4-|----------|-----------|
*|-2--2-2-2-|-2--2-2-2-|----------|-----------|
  F#5                   A



-Chorus-

*|------------|------------|-----------------|------------|
*|------------|------------|-----------------|------------|
*|------------|------------|-----------------|------------|
*|-6--6-6-6-6-|-8--8-8-8-8-|-10--10-10-10-10-|-6--6-6-6-6-|
*|-6--6-6-6-6-|-6--6-6-6-6-|-8---8--8--8--8--|-4--4-4-4-4-|
*|-4--4-4-4-4-|------------|-----------------|------------|
  G#5          Eb5          F5                C#5

*|------------|------------|-----------------|-------|-------|
*|------------|------------|-----------------|-------|-------|
*|------------|------------|-----------------|-------|-------|
*|-6--6-6-6-6-|-8--8-8-8-8-|-10--10-10-10-10-|-6-<6>-|-8-<8>-|
*|-6--6-6-6-6-|-6--6-6-6-6-|-8---8--8--8--8--|-4-<4>-|-6-<6>-|
*|-4--4-4-4-4-|------------|-----------------|-------|-------|
  G#5          Eb5          F5                C#5     Eb5

*|------------|------------|-----------------|-------|
*|------------|------------|-----------------|-------|
*|------------|------------|-----------------|-------|
*|-6--6-6-6-6-|-8--8-8-8-8-|-10--10-10-10-10-|-6-<6>-|
*|-6--6-6-6-6-|-6--6-6-6-6-|-8---8--8--8--8--|-4-<4>-|
*|-4--4-4-4-4-|------------|-----------------|-------|
  G#5          Eb5          F5                C#5    

*|------------|------------|-----------------|-------|-------|
*|------------|------------|-----------------|-------|-------|
*|------------|------------|-----------------|-------|-------|
*|-6--6-6-6-6-|-8--8-8-8-8-|-10--10-10-10-10-|-6-<6>-|-8-<8>-|
*|-6--6-6-6-6-|-6--6-6-6-6-|-8---8--8--8--8--|-4-<4>-|-6-<6>-|
*|-4--4-4-4-4-|------------|-----------------|-------|-------|
  G#5          Eb5          F5                C#5     Eb5


-Lick1-

*|------------|------------|-----------------------------------|
*|------------|------------|-----------------------------------|
*|------------|------------|-----------------------------------|
*|-6--6-6-/9~-|-6--6-6--6~-|-6--6-6--4-4-6-6-8-8-9-9-10-10-13~-|
*|-6--6-6-/9~-|-6--6-6--4~-|-6--6-6--2-2-4-4-6-6-7-7-8--8--11~-|
*|-4--4-4-/7~-|-4--4-4-----|-4--4-4----------------------------|
  G#5      B5  G#5      C#5 G#5      B5  C#5 Eb5 E5  F#5   G#5

*|---------------|-----------------|-----------------------------------------|
*|---------------|------------12~~-|------------10---12--13---15---17--18~~~-|
*|---------------|------------14b~-|------------12b--14b-15b--17b--19b-20b~~-|
*|-13--13-13-/16-|-13--13-13-------|-13--13-13-------------------------------|
*|-11--11-11-/14-|-11--11-11-------|-11--11-11-------------------------------|
*|---------------|-----------------|-----------------------------------------|
  G#          B    G#         C#     G#         B    C#  Eb   E    F#  G#


-Verse3-

*|-------|---------|-------|-------|
*|-------|---------|-------|-------|
*|-------|---------|-------|-------|
*|-8-<8>-|-10-<10>-|-8-<8>-|-8-<8>-|
*|-8-<8>-|-8--<8>--|-6-<6>-|-8-<8>-|
*|-6-<6>-|---------|-------|-6-<6>-|
  Bb5     F5        F5      Bb5

*|---------|-------|-------|
*|---------|-------|-------|
*|---------|-------|-------|
*|-10-<10>-|-8-<8>-|-8-<8>-|
*|-8--<8>--|-6-<6>-|-8-<8>-|
*|---------|-------|-6-<6>-|
  F5        Eb5     Bb5

*|---------|-------|
*|---------|-------|
*|---------|-------|
*|-10-<10>-|-8-<8>-|
*|-8--<8>--|-6-<6>-|
*|---------|-------|
  F5        Eb5     

*|-------------|---------------|---------------|---------------|---------------|--------------|
*|-------------|---------------|---------------|---------------|---------------|--------------|
*|-------------|-x-------------|-x-------------|-x-------------|-x-------------|-x------------|
*|-5--5--5-5-5-|-x-3--3--3-3-3-|-x-8--8--8-8-8-|-x-7--7--7-7-7-|-x-5--5--5-5-5-|-x-5--5-5-5-5-|
*|-5--5--5-5-5-|-x-3--3--3-3-3-|-x-6--6--6-6-6-|-x-5--5--5-5-5-|-x-3--3--3-3-3-|-x-3--3-3-3-3-|
*|-3--3--3-3-3-|-x-1--1--1-1-1-|-x-------------|-x-------------|-x-------------|-x------------|
  G5            F5              Eb5             D5              C5 

*|-------------|-------------|------------------|-----|
*|-------------|-------------|------------------|-----|
*|-------------|-------------|------------------|-*/*-|
*|-6--6--6-6-6-|-9--9--9-9-9-|-10--10--10-10-10-|-*/*-|
*|-4--4--4-4-4-|-7--7--7-7-7-|-8---8---8--8--8--|-*/*-|
*|-------------|-------------|------------------|-*/*-|
  C#5           E5            F5




-Guitar Solo-

*|------------------|------------------|---------------|
*|----------8/10-p8-|------------------|-5-3-----------|
*|----7-------------|-10-8-----8h10-p8-|-----6-4-3-----|
*|-9-----9----------|-------10---------|-----------6-4-|
*|------------------|------------------|---------------|
*|------------------|------------------|---------------|

*|---------------------|------------------|--------------|
*|-------------8/10-p8-|------------------|--------------|
*|-------7-------------|-10-8-----8h10-p8-|--------------|
*|-+/9------9----------|-------10---------|-10----8p6-h8-|
*|---------------------|------------------|--------------|
*|---------------------|------------------|--------------|


-Bridge-

*|------------------------|---------------------|---------------|
*|---------------12/14p12-|---------------------|-8-6-----------|
*|------11----------------|-14-12------12h14p12-|-----9-7-6-----|
*|-13--------13-----------|--------14-----------|-----------9-7-|
*|------------------------|---------------------|---------------|
*|------------------------|---------------------|---------------|

*|------------------------|-----------------------|---------|-----|
*|---------------12/14p12-|-----------------------|---------|-----|
*|------11----------------|-14-12------12h14-12~~-|---------|-*/*-|
*|-13--------13-----------|--------14-------------|---------|-*/*-|
*|------------------------|-----------------------|---------|-*/*-|
*|------------------------|-----------------------|---------|-*/*-|




-Lick After Last Chorus-

*|------------------|------------------|---------------|
*|----------8/10-p8-|------------------|-5-3-----------|
*|----7-------------|-10-8-----8h10-p8-|-----6-4-3-----|
*|-9-----9----------|-------10---------|-----------6-4-|
*|------------------|------------------|---------------|
*|------------------|------------------|---------------|

*|---------------------|-------------------|
*|-------------8/10-p8-|-------------------|
*|-------7-------------|-10-8-----8h10-p8~-|
*|-+/9------9----------|-------10----------|
*|---------------------|-------------------|
*|---------------------|-------------------|

*|---------------|-----------------|-----------------------------------------|-----|
*|---------------|------------12~~-|------------10---12--13---15---17--18~~~-|-----|
*|---------------|------------14b~-|------------12b--14b-15b--17b--19b-20b~~-|-----|
*|-13--13-13-/16-|-13--13-13-------|-13--13-13-------------------------------|-<6>-|
*|-11--11-11-/14-|-11--11-11-------|-11--11-11-------------------------------|-<6>-|
*|---------------|-----------------|-----------------------------------------|-<4>-|
  G#          B    G#         C#     G#         B    C#  Eb   E    F#  G#      G#5        end.....


whew....
there you go!!!....i think this is right....tho im NOT claiming that this is the 
way Mami plays this awesome song....-__-"
btw!!! as for the lick parts after chorus, i know its hard tho....so you can also 
play that party using this line...

*|------------|------------|----------------------------------|
*|------------|------------|----------------------------------|
*|------------|---------6~-|--------4-4-6-6-8-8-9-9-10-10-13~-|
*|-6--6-6-/9~-|-6--6-6-----|-6--6-6---------------------------|
*|-6--6-6-/9~-|-6--6-6--4~-|-6--6-6-2-2-4-4-6-6-7-7-8--8--11~-|
*|-4--4-4-/7~-|-4--4-4-----|-4--4-4---------------------------|
  G#5      B5  G#5      C#5 G#5     B5  C#5 Eb5 E5  F#5   G#5

well that's pretty easy right? compared to the first one....
hehehe...btw it's up to you...
ENJOY!!!


-Ledger-

h                    hammer on
p                    pull off
~                    let ring
 or     break
/                    slide
+/+                  legato slide
+/ or /+             slide from/to nowhere
          do alternate picking or tremolo picking for the whole measure
(n) or (n-n-n...)    palm muted
*/ or /* or */*      scrape pick down the strings
x	             dead string
b                    bend 
qb                   quarter bend
hb                   half bend
fb                   full bend 
                 whole measure is played in full bend
                 whole measure is played in half bend
                 whole measure is played in quarter bend
                  whole measure was supposed to be bent
         whole measure indicated was in palm mute
(hold)               hold
               hold for whole measure
(break)              break
               rest
[n]                  (for bass tabs only) tap, slap, pop, or what ever you may call it..hahaha



ohh!!! if you have some questions, suggestions, or comments please post it on my 
facebook wall: bwahaha_13@yahoo.com
for some updates, kindly visit my blog bwahaha13.multiply.com
again thanks!!!
Tap to rate this tab
 
# A B C D E F G H I J K L M N O P Q R S T U V W X Y Z