Song name
# A B C D E F G H I J K L M N O P Q R S T U V W X Y Z

Scandal - Doll tab

Haru Guitar : 

Intro : 
 /------------X2--------------\
e|----------------------------|
B|----------------------------|
G|--------7--7----------------|
D|--------7--7--7--7--5--7----|
A|--9--9--5--5--7--7--5--7----|
E|--7--7--------5--5--3--5----|

Verse : 
 /-----x4-----\
e|----------------------|
B|----------------------|
G|-----------------8----|
D|---7--9--7--9----9----|
A|---7--9--7--9----9----|
E|---5--7--5--7----7----|

Chorus : 
e|------------------------------------------------------------|
B|------------------------------------------------------------|
G|------------------------------------------------------------|
D|--9------7--------9---------7--------5--------5--------7----|
A|--9------7--------9---------7--------5--------5--------7----|
E|--7--(x8)5--(x8)--7--(x16)--5--(x8)--3--(x8)--3--(x6)--5----|

Middle:
e|-------------9b--7----------------|
B|---9b--7--7------------9b--7------|
G|--7-----------------7---------8---|
D|----------------------------------|
A|----------------------------------|
E|----------------------------------|

Repeat Verse
Repeat chorus

Collision:
 /------------X3--------------\
e|----------------------------|--------------------------------|
B|----------------------------|--------------------------------|
G|--------7--7----------------|--------------------------------|
D|--------7--7--7--7--5--7----|--14--------14--13--------14----|
A|--9--9--5--5--7--7--5--7----|--14--------14--13--------14----|
E|--7--7--------5--5--3--5----|--12--(x8)--12--11--(x2)--12----|

Bridge : 
e|-------------------------|
B|-------------------------|
G|-------------------------|
D|--7--4--7--9--7--6--5----|
A|--7--4--7--9--7--6--5----|
E|--5--2--5--7--5--4--3----|

RIYUU NANTE IMA WA IRANAI
(Gm, Am)
e|----------------------|
B|----------------------|
G|----------------------|
D|--5--------7----------|
A|--5--------7----------|
E|--3--(x8)--5--(x3)----|

e|---------------------------------------------------------------|
B|---------------------------------------------------------------|
G|---------------------------------------------------------------|
D|--7---------9---------7---------9--------5--5----5--7--7--7----|
A|--7---------9---------7---------9--------5--5----5--7--7--7----|
E|--5--(x16)--7--(x16)--5--(x16)--7--(x8)--3--3----3--5--5--5----|

e|--------------------------------------------|
B|--------------------------------------------|
G|--------------------------------------------|
D|--9---------8---------9---------10----------|
A|--9---------8---------9---------10----------|
E|--7--(x16)--6--(x16)--7--(x16)--8--(x16)----|

e|----------------------------------------------------------------|
B|----------------------------------------------------------------|
G|----------------------------------------------------------------|
D|--7---------5---------9---------7---------9---------7-----------|
A|--7---------5---------9---------7---------9---------7-----------|
E|--5--(x12)--3--(x12)--7--(x12)--5--(x12)--7--(x12)--5--(x12)----|

e|------------------------------------------------------------------------|
B|------------------------------------------------------------------------|
G|------------------------------------------------------------------------|
D|--9---------7---------5---------7---------9---------5--------7----------|
A|--9---------7---------5---------7---------9---------5--------7----------|
E|--7--(x12)--5--(x12)--3--(x10)--5--(x12)--7--(x12)--3--(x6)--5--(x8)----|

e|----------------|
B|----------------|
G|----------------|
D|--7--9--7--9----|
A|--7--9--7--9----|
E|--5--7--5--7----|

Outro : 
e|----------|
B|----------|
G|--7-------|
D|--7--9----|
A|--5--9----|
E|-----7----|
Tap to rate this tab
# A B C D E F G H I J K L M N O P Q R S T U V W X Y Z