Song name
# A B C D E F G H I J K L M N O P Q R S T U V W X Y Z

Scanners - Lowlife tab

para sabrina, con quien sea que estes mi amor.
escuchen la rola y sietnan el sabor.
disfrutenla tanto como yo.

e|--------------------------|
B|--------------------------|
G|-----77-67--7/11-77-------|
D|-----77-77--7/11-77-------|
A|-----55-55-------55-------|
E|--------------------------|  X4
 
e|--------------------------|
B|--------------------------|
G|-----77-67--7/11-77-------|
D|-----77-77--7/11-77-------|
A|-----55-55-------55-------|
E|--------------------------|  X2

e|--------------------------|
B|--------------------------|
G|-----77-67--7/11-77-------|
D|-----55-55--7/11-55-------|
A|--------------------------|
E|--------------------------| X2

e|--------------------------|
B|--------------------------|
G|-----77-67--7/11-77-------|
D|-----77-77--7/11-77-------|
A|-----55-55-------55-------|
E|--------------------------|  X2

e|--------------------------|
B|--------------------------|
G|-----77-67--7/11-77-------|
D|-----55-55--7/11-55-------|
A|--------------------------|
E|--------------------------| X2

e|--------------------------|
B|--------------------------|
G|-----77-67--7/11-77-------|
D|-----77-77--7/11-77-------|
A|--------------------------|
E|-----77-77-------77-------| X2

e|--------------------------|
B|--------------------------|
G|-----77-67--7/11-77-------|
D|-----77-77--7/11-77-------|
A|--------------------------|
E|-----55-55-------55-------| X2


y hasta ahii le saquee :P
Tap to rate this tab
# A B C D E F G H I J K L M N O P Q R S T U V W X Y Z