Scanners - Lowlife tab

Scanners

Lowlife

--------------------------------------------------------------------
I know your not ready to live
Are you ready to die
Under your skin under your skin under skin
Is a regular guy

You lost your soul
You didn't know
This is a low, this is a low

This is low this is low life
A world where people walk by night
So by day an average man
But night time brings the creature from the can
Sometimes you scream out loud
But there's always safety from the crowd
You're not alone you're not alone you know

This is a low, this is a low, this is a lonely time a lonely time

Its like my skin, turned inside out
And there's no silver here in this cloud
It's like a love that's turning sour
Its letting go
This is a low
--------------------------------------------------------------------

Standard Tuning

x = muted

Riff


      ' 	      '		      '
E ----------------------------------------------------------------|
B -----------7---------------7------------------------------------|
G ----7-7-67-x-666-6667-7-67-x-666-666----------------------------|
D ----7-7-77-7-777-7777-7-77-7-777-777----------------------------|
A ----5-5-55-5-555-5555-5-55-5-555-555----------------------------|
E ----------------------------------------------------------------|

Pre Chorus bit


      '               '
E ----------------------------------------------------------------|
B ------------7777------------------------------------------------|
G ----77776666xxxx6666--------------------------------------------|
D ----7777777777777777--------------------------------------------|
A ----5555555555555555--------------------------------------------|
E ----------------------------------------------------------------|

Chorus


      '                               '
E ----------------------------------------------------------------|
B ------------77777777--------------------------------------------|
G ----44444444xxxxxxxx6666666699997777----------------------------|
D ----55555555777777777777777777777777----------------------------|
A ----------------------------------------------------------------|
E ----------------------------------------------------------------|


		      ____Tab_by_Nyberius____
Tap to rate this tab
 
# A B C D E F G H I J K L M N O P Q R S T U V W X Y Z