Song name
# A B C D E F G H I J K L M N O P Q R S T U V W X Y Z

Scapegoat Wax - Aisle 10 Hello Alison tab

Well it was hard to find any tabs on this so this was done by ear, but i'm pretty sure 
100% correct.
there are two guitars, one acoustic and one electric. the acoustic plays two main chords 
the whole song. the electric plays a riff over that throughout the song. just listen 
the timing.

    Main Chords
e|---4-xxx-4-xxx----2-xxx-2-xxx---|
B|---4-xxx-4-xxx----2-xxx-2-xxx---|
G|---4-xxx-4-xxx----2-xxx-2-xxx---|
D|-x-6-xxx-6-xxx--x-4-xxx-4-xxx---|
A|-x-6-xxx-6-xxx--x-4-xxx-4-xxx---|
E|-x-4-xxx-4-xxx--x-2-xxx-2-xxx---|   this is played through whole song

    Riff 1
e|--4---2--------5-3-5--|
B|----4---0-------------|
G|----------------------|
D|----------------------|
A|----------------------|
E|----------------------|

    Riff 2
e|--16--11--14--17------|
B|----------------------|
G|----------------------|
D|----------------------|
A|----------------------|
E|----------------------|

riff 1 is played simutaniously through song. riff 2 is played right before the chorus.
Tap to rate this tab
 
# A B C D E F G H I J K L M N O P Q R S T U V W X Y Z