Song name
# A B C D E F G H I J K L M N O P Q R S T U V W X Y Z

Scapegoat Wax - Aisle 10 Hello Alison tab

Help us improve GuitareTab! Take a short survey!
Okay, I'm pretty sure this is right. I couldn't find this tab anywhere else so I did it
myself. This is the whole song. This is done on acoustic guitar, the riff is up for
electric but with no effects.

   Main part (through whole song)
  e|-5---5-------6---6------------------|
  B|-5---5-------6---6------------------|
  G|-5---5-------6---6------------------|
  D|-7---7-------8---8------------------|
  A|-7---7-------8---8------------------|
  E|-5---5-------6---6------------------|
     
   riff

  e|-5---3-------6-4-6------------------|
  B|---5--------------------------------|
  G|------------------------------------|
  D|------------------------------------|
  A|------------------------------------|
  E|------------------------------------|

If you have questions, comments, or corrections, contact me at 

djthisguy@yahoo.com
Related for Aisle 10 Hello Alison tab