Song name
# A B C D E F G H I J K L M N O P Q R S T U V W X Y Z

Scapegoat Wax - Watching The Rain tab

Artist: Scapegoat Wax
Song: Watching The Rain

Intro
------------------------|
------------------------|
------------------------|
-------4-6-4------------|
-------------7-6--------|
----4-6-----------------|

Verse/Chorus
-------------------------------|
---5-5-5-5--4------------------|
---6-6-6-6--5------------------|
-------------------4-6-4-------|
-------------------------7-6---|
---------------4-6-------------|

Bridge(Spanish Guitar Riff)(1:52)
-------4--6-7--6-7-6-----------------|
-------------------------------------|
-------------------------------------|
-------------------------------------|
-------------------------------------|
-------------------------------------|
Variation For Rapped Verse
-------------------------------------|
---5-5-5-5-5-5-5-5--4----------------|
---6-6-6-6-6-6-6-6--5----------------|
--------------------------4-6-4------|
--------------------------------7-6--|
----------------------4-6------------|

This is a pretty simple song that's great to sing along to. Enjoy
Tap to rate this tab
# A B C D E F G H I J K L M N O P Q R S T U V W X Y Z