Song name
# A B C D E F G H I J K L M N O P Q R S T U V W X Y Z

Scapegoat - I Am Alien tab

-----------------------------------------------------------------------------
                             "I AM ALIEN" by SCAPEGOAT
-------------------------------------------------------------------------------
Tabbed by: Unsaidxpl
Email: unsaidxpl@bk.ru

Tuning:  
Guitar 1 - Drop D or standard tuning
Guitar 2 - Drop D tuning              

Guitar 1

INTRO/PRE-VERSE/MIDDLE VERSE

e|-14----------------14----------------14----------------14---------13---|
B|-------14----------------14----------------14----------------14--------|
G|----11----11-14-11----11----11-14-11----11----11-14-11----11----11---11| x4
D|-----------------------------------------------------------------------| 
A|-----------------------------------------------------------------------|
D|-----------------------------------------------------------------------|

*at the 4th repeat play only a half of this


CHORUS (add some strumming here)

e|--------------------------|-----------------------------|
B|--------------------------|-----------------------------|
G|-7-----9-----11-----11----|-11-----13-----14-----14-----|
D|-x-----x-----x------x-----|-x------x------x------x------|
A|-5-----7-----9------9-----|-9------11-----12-----12-----|
D|--------------------------|-----------------------------|

e|--------------------------|---------------|
B|--------------------------|---------------|
G|-14----16----14-----16-14-|-11-----13-----|
D|-x-----x-----x------x--x--|-x------x------|
A|-12----14----12-----14-12-|-9------11-----|
D|--------------------------|---------------|

BRIDGE (played with strong delay)

e|-14----14---------|
B|----14----14-15-14|
G|------------------|  x16
D|------------------|
A|------------------|
D|------------------|

CLEAN PART/pre-chorus (played with clean sound)

e|---------------------------|
B|-3-----0-----2-------------|
G|-------------------2-------| 
D|---------------------------|
A|---------------------------|
D|---------------------------|

Acoustic guitar

Played at clean part with strumming

e|-0-------------------------|
B|-3-----------------2-------|
G|-2-----0-----2-----2-------| 
D|-0-----2-----4-----2-------|
A|-------2-----4-----0-------|
E|-------0-----2-------------|


Guitar 2

INTRO/PRE-VERSE/MIDDLE VERSE

e|--------------------------------------------------------|
B|--------------------------------------------------------|
G|--------------------------------------------------------|
D|-x-x---x---x-x-x---x---x---x-x-x---x---x---x-x-x-x-x-x-x|
A|-x-x---x---x-x-x---x---x---x-x-x---x---x---x-x-x-x-x-x-x|
D|-x-x---x---x-x-x---x---x---x-x-x---x---x---x-x-x-x-x-x-x|

e|----------------------------------------------|
B|----------------------------------------------|
G|----------------------------------------------|
D|-x-x---x---x-x-x---x---x---x-------------4----|
A|-x-x---x---x-x-x---x---x---x---0-4-7-4-0-4----|
D|-x-x---x---x-x-x---x---x---x-4-----------4----|


VERSE


e|-------------------------------------------------|
B|-------------------------------------------------|
G|-------------------------------------------------|
D|-4---x-x-x-x-4---x-x-x-x-4---x-x-x-x-0---0---0---|
A|-4---x-x-x-x-4---x-x-x-x-4---x-x-x-x-0---0---0---|
D|-4---x-x-x-x-4---x-x-x-x-4---x-x-x-x-0---0---0---|

e|-------------------------------------------------|   x4
B|-------------------------------------------------|  
G|-------------------------------------------------|
D|-4---x-x-x-x-4---x-x-x-x-------------------------|
A|-4---x-x-x-x-4---x-x-x-x----0-4-7-4-0--0-4-7-4-0-|
D|-4---x-x-x-x-4---x-x-x-x-4-----------4-----------|

*at the end of the verse skip last 5 notes


CHORUS (add some strumming here)

e|-----------------------------|
B|-----------------------------|
G|----------------------2------|
D|-0------2------4------2------| x4
A|-0------2------4------0------|
D|-0------2------4-------------|

*at the 4th repeat stop at the middle of 2nd chord

BRIDGE (add some strumming here)

e|------------------------------|
B|------------------------------|
G|----------------------2-------|
D|-4------4------0------2-------| x4
A|-4------4------0------0-------|
D|-4------4------0--------------|

BRIDGE 2/OUTRO (Bang!!! Pow!!! Boom!!!)

e|------------------------------------------------------------------|
B|------------------------------------------------------------------|
G|------------------------------------------------------------------|
D|------------------------------------------------------------------| x2
A|------------------------------------------------------------------|
D|-4b---0-4-0-4b---0-4-0-4b---0-4-0-4b---0-4-0-4b---0-4-0-4b---0-4-0| 

CLEAN PART

Played the same way as chorus but very quiet


at the end of OUTRO play this

e|-------------|
B|-------------|
G|-------------|
D|------------4|
A|--0-4-7-4-0-4|
D|4-----------4|


That's all. Enjoy. Rate.

************************************

| x   Mute note
| b   Bend (very slightly)

************************************
Tap to rate this tab
 
# A B C D E F G H I J K L M N O P Q R S T U V W X Y Z