Guitaretab - guitar tabs
Song name
# A B C D E F G H I J K L M N O P Q R S T U V W X Y Z

Scar Symmetry - Ghost Prototype Ii tab

Scar Symmetry- Ghost Prototype 2- Deus Ex Machina
Kind of mutated for my six string, most of it sounds right. 
Use your imagination if something sounds out.

Repeat the parts where necessary in the song- it's easy to see 
where they go :P

Intro Chords

   Am        C        G        Dm
|----------------------------------0-1-----------------------------|
|------1-0-------1-0------1-0--------------------------------------|  Repeat under 
|--------------------------------2---------------------------------|  Intro solo
|----2---------2---------------0-----------------------------------|
|--0---------3----------2------------------------------------------|
|---------------------3--------------------------------------------|

Intro Solo (A lot of slides, makes it sound v.sweet).

|------------------------------------------------------------------|
|------------------------------------------------------------------|
|------------------------------------------------------------------|
|--------------------------------------------/14-12h14p12/10-10----|
|-/12h13/10-10-7/5/3/5-5/3/2/3-7h8/5/3/5/7~------------------------|
|------------------------------------------------------------------|

|------------------------------------------------------------------|
|---------------------------17-17b(1/2)-15~------------------------|
|-----------------/16-17-19----------------------------------------|
|-/14-15-17h19p17--------------------------------------------------|
|------------------------------------------------------------------|
|------------------------------------------------------------------|

Main Riff (Sounds close but not deep enough on my 6 string)  (All x2)
|------------------------------------------------------------------|
|------------------------------------------------------------------|
|------------------------------------------------------------------|
|---------------------------12-------------------------------------|
|--------------------10--------10----------------------------------|
|- 000-0-000-0-000-7----7-8-------8--------------------------------|

|------------------------------------------------------------------|
|------------------------------------------------------------------|
|------------------------------------------------------------------|
|----------------------------14------------------------------------|
|---------------------12--------12---------------------------------|
| 000-0-000-0-000-10-----10-9------9-------------------------------|

|------------------------------------------------------------------|
|------------------------------------------------------------------|
|------------------------------------------------------------------|
|--------------------------12--------------------------------------|
|--------------------10--------10----------------------------------|
| 000-0-000-0-000-7-----7-8-------8--------------------------------|

|------------------------------------------------------------------|
|------------------------------------------------------------------|
|----------------------------14------------------------------------|
|--------------------10----------12--------------------------------|
|------------------7----7-10--------9------------------------------|
|-222-2-222-777-7--------------------------------------------------|

''For we will not conform/We're ghosts in the machine''
|------------------------------------------------------------------|
|------------------------------------------------------------------|
|------------------------------------------------------------------|
|------------------------------------------------------------------|
|--5--7--9----------------5--7--9-----------------5--7--9----------|
|--3--5--7----------------3--5--7-----------------3--5--7----------|

|-----------------------------12-----------------------------------|
|--14-14-14-14-12----------14----12-----------12-14-12-------------| 
|-----------------14-13-14-----------13-13-14----------14-13-14----| 
|------------------------------------------------------------------|
|------------------------------------------------------------------|
|------------------------------------------------------------------|
[ Tab from: http://www.guitaretab.com/s/scar-symmetry/189358.html ]
|----------------------------12------------------------------------|
|-14-14-14-14-12----------14----14----------12-------12-14-15-14---|
|----------------14-13-14----------13-13-14----12-13---------------|
|------------------------------------------------------------------|
|------------------------------------------------------------------|
|------------------------------------------------------------------|

|------------------12-14~------------------------------------------|
|--12-----12-14-15-------------------------------------------------|
|-----14-----------------------------------------------------------|
|------------------------------------------------------------------|
|------------------------------------------------------------------|
|------------------------------------------------------------------|

Not sure on these post-central parts, working on them.

Intro chords come in with the soft singing again.

Post chords solo--

|-------------------------------------------------------------------|
|-------------------------------------------------------------------|
|-11h13h15p13p11---11-----------------------------------------------|
|-------------------------11h13p11h13p11 \ 9-------9h11-------------|
|-------------------------------------------------------------------|
|-------------------------------------------------------------------| 

|-------------------------------------------------------------------|
|-------------------------------------------------------------------|
|-------------------------------------------------------------------|
|----\8--9--11/13---13b-----11---\9--11/13--------------------------|
|-------------------------------------------------------------------|
|-------------------------------------------------------------------| 
 
|-------------------------------------------------14---16---14------|
|--14b--14b--14p12--12--------14/16---------------------------------|
|-------------------------------------------------------------------|
|-------------------------------------------------------------------|
|-------------------------------------------------------------------|
|-------------------------------------------------------------------|
                       
|-----------------------19----------16-19--18--16-------------------|
|-----------16-16b--------------16------------------19-17-16--------|
|-15-16-18----------------16h18------------------------------18-15--|
|-------------------------------------------------------------------|
|-------------------------------------------------------------------|
|-------------------------------------------------------------------|

|-------------------------------------------------------------------|
|-------------------------------------------------------------------|
|-15h16--15-\13--13-------------------------------------------------|
|------------------------------13\11-11\9-9\8-8-6-------------------|
|------------------------------------------------------9-6-9-4------|
|-------------------------------------------------------------------|

|-------------------------------------------------------------------|
|-----------12-14---------------------------------------------------|
|---/13b------------13-11---11-13--------13---15-16---/20--15--16---|
|------------------------------------------13-----------------------|
|-------------------------------------------------------------------|
|-------------------------------------------------------------------|

|-------------------------------------------------------------------|
|-------4--------4--------------------0----0------------------------|
|----4----4--3----3--1--------------4----3----1---------------------|
|------------------------4--1--4----------------4--1--4-------------|
|---------------------------------------------------------4---4-----|
|-------------------------------------------------------------------|

|-------------------------------------------------------------------|
|-------------------------------------------------------------/12---|
|-------------------------------------------------------------------| 
|----------1-2-4----------2-4-6----------4-6-8---------6-8-9--------| 
|-1-2-4-----------2-4-6---------4-6-7----------6-7-9----------------|
|-------------------------------------------------------------------|

/Fin

Send corrections/advice to me at not.dead.enough@googlemail.com
Related for Ghost Prototype Ii tab
Ghost Prototype Ii chords by Scar Symmetry