Song name
# A B C D E F G H I J K L M N O P Q R S T U V W X Y Z

Scar Symmetry - Artificial Sun Projection tab

-------------------------------------------------------------------------------
			Artificial Sun Projection - Scar Symmetry
-------------------------------------------------------------------------------
Tabbed by: GMacD
Email: geordie_macdonald_1@hotmail.com

Tuning: B standard


GTR 1                                                                      x2
e|---------------------------------------------------------------------------|
B|---------------------------------------------------------------------------|
G|-------------------------------2-2-2---------------------------------------|
D|--2-2-2------------------------2-2-2--5-5-5--------------------------------|
A|--2-2-2--5-5-5---3-3-3--2-2-2--0-0-0--5-5-5-5------------------------------|
E|--0-0-0--5-5-5---3-3-3--2-2-2---------3-3-3-5------------------------------|
B|---------3-3-3---1-1-1--0-0-0---------------3------------------------------|

GTR 2                                                                      x2
e|---------------------------------------------------------------------------|
B|---------------------------------------------------------------------------|
G|--9999999999999999999999999999999999999999999/7----------------------------|
D|---------------------------------------------------------------------------|
A|---------------------------------------------------------------------------|
E|---------------------------------------------------------------------------|
B|---------------------------------------------------------------------------|

GTR 1                                                                      x4
e|---------------------------------------------------------------------------|
B|---------------------------------------------------------------------------|
G|-----------------------------------2-2-2-----------------------------------|
D|------2-2-2------------------------2-2-2--5-5-5----------------------------|
A|------2-2-2--5-5-5---3-3-3--2-2-2--0-0-0--5-5-5-5--------------------------|
E|------0-0-0--5-5-5---3-3-3--2-2-2---------3-3-3-5--------------------------|
B|-------------3-3-3---1-1-1--0-0-0---------------3--------------------------|

GTR 2  (the whole thing is played two times)                    
e|---------------------------------------------------------------------------|
B|---------------------------------------------------------------------------|
G|----9-12-11----------/12-11-9-8-9-11-9-------------------------------------|
D|------------12--9-10-------------------------------------------------------|
A|---------------------------------------------------------------------------|
E|---------------------------------------------------------------------------|
B|---------------------------------------------------------------------------|

e|---------------------------------------------------------------------------|
B|------------------------------13-12----------------------------------------|
G|----9-12-11----------/12-11-9-------11-12----------------------------------|
D|------------12--9-10-------------------------------------------------------|
A|---------------------------------------------------------------------------|
E|---------------------------------------------------------------------------|
B|---------------------------------------------------------------------------|


| /  slide up
| \  slide down
| h  hammer-on
| p  pull-off
| ~  vibrato
| +  harmonic
| x  Mute note
===============================================================================
Tap to rate this tab
 
# A B C D E F G H I J K L M N O P Q R S T U V W X Y Z