Scar Symmetry - Illuminoid Dream Sequence tab

Artist: Scar Symmetry 
Song: Illuminoid Dream Sequence
Album: The Unseen Empire
Tuning: Drop A  (A E A D G B E )
Tabbed by drawnacrol

Guitar Lead: 2:17

|----------------------------------------------------------------------|
|--5/7~---7--9--10-----9--(9)h10p9--7---6------------------------------|
|-------------------------------------------5---5~~---4---4~--\2---2~--|
|----------------------------------------------------------------------|
|----------------------------------------------------------------------|
|----------------------------------------------------------------------|

|----------------------------------------------------------------------|
|--5/7~---7--9--10-----/14~---12b13----12b13r12---10-------------------|
|----------------------------------------------------------------------|
|----------------------------------------------------------------------|
|----------------------------------------------------------------------|
|----------------------------------------------------------------------|

Guitar Solo: 3:17

|--16b17---(17)r16---16~---14------------16-------------------------------|
|------------------------------17-16b17-------17r16~--(16)b17r16--14------|
|---------------------------------------------------------------------16--|
|-------------------------------------------------------------------------|
|-------------------------------------------------------------------------|
|-------------------------------------------------------------------------|

|--------11----------9-------------------------------------------------|
|-----------------------------12---------------------------------------|
|--9/11-----11\9--8-----8h9-------8b9r8--------------------------------|
|----------------------------------------11--9-------------------------|
|------------------------------------------------9~--------------------|
|----------------------------------------------------------------------|

|-------------------12-------------------------------------------------|
|----------9--10~--------9b10---(10)r9b10r9\7--------------------------|
|------11----------------------------------------9~~-------------------|
|--11------------------------------------------------------------------|
|----------------------------------------------------------------------|
|----------------------------------------------------------------------|

|----------------------------------------------------------------------|
|----------------------------------------------------------------------|
|----------------------------------------------------------------------|
|--9h11h14t19p13p11-/13h14h16t21p16p14--13h14h16t21p16p14p13-----------|
|----------------------------------------------------------------------|
|----------------------------------------------------------------------|

|--------------------------------------11h12h14t19p14p12p11------------|
|----------------------------------------------------------------------|
|----------------------------------------------------------------------|
|--h14h16h18t23p18p16p14--14h16h18-------------------------------------|
|----------------------------------------------------------------------|
|----------------------------------------------------------------------|

|--11h12h14t19p14p12p11--12h14h16t21p16p14p12--------------------------|
|----------------------------------------------16--14--12--t24p12------|
|----------------------------------------------------------------------|
|----------------------------------------------------------------------|
|----------------------------------------------------------------------|
|----------------------------------------------------------------------|

|------------------14--23b~~~~-----------------------------------------|
|--12/14--16--17-------------------------------------------------------|
|----------------------------------------------------------------------|
|----------------------------------------------------------------------|
|----------------------------------------------------------------------|
|----------------------------------------------------------------------|

Guitar Solo 2: 3:47

|----------------------------------------------------------------------|
|----------------------------------------------------------------------|
|--------6-8-9~~--7-9~~---/14~---13-\---5~~~-----9b10~~-----9~~--------|
|--6-7-9---------------------------------------------------------------|
|----------------------------------------------------------------------|
|----------------------------------------------------------------------|

|----------------------------------------------------------------------|
|----------------------------------------------------------------------|
|----------------------------------------------------------------------|
|--7~~---6-7-9--10~~~---9~~--10p9p7---6~~--h7p6\3~~--------------------|
|----------------------------------------------------------------------|
|----------------------------------------------------------------------|

|-------8--12--p8------------------------------------8--12--/19--------|
|----10-----------10------------------10--9--10--12--------------------|
|--9------------------10--9h10p9~~-------------------------------------|
|----------------------------------------------------------------------|
|----------------------------------------------------------------------|
|----------------------------------------------------------------------|

|--(19)p16-------------------------------------------------------------|
|----------17----------------------------------------------------------|
|-------------16~~---16p13---------------------------------------------|
|---------------------------14--------------18------15\14~-------------|
|-------------------------------14~~----14------14---------------------|
|----------------------------------------------------------------------|

|----------------------------------------------------------------------|
|----------------------------------------------------------------------|
|----------------------------------------------------------------------|
|------------14------10---------------10------------------10------9----|
|--11h12h14------12--------------------------11---7h9h10------7--------|
|--------------------------11h12h14------12----------------------------|

|-------------------------------------------------------10-------------|
|--------------------------------------10-12-13b15~~~--------13--12~~--|
|------------------------------9-11-12---------------------------------|
|--9h10p9p7------------9-10-12-----------------------------------------|
|------------7~~---12--------------------------------------------------|
|----------------------------------------------------------------------|

|--10-------------10-----------------------------------------------16--|
|------12--9~~--------9-----------18p15----------15-18p15----15-18-----|
|------------------------10~~-----------16----16----------16-----------|
|------------------------------------------18--------------------------|
|----------------------------------------------------------------------|
|----------------------------------------------------------------------|

|--19p16----------16h19/22p19-----19h22--/24~~-------------------------|
|--------18----18-------------18---------------------------------------|
|-----------19---------------------------------------------------------|
|----------------------------------------------------------------------|
|----------------------------------------------------------------------|
|----------------------------------------------------------------------|
Tap to rate this tab
 
# A B C D E F G H I J K L M N O P Q R S T U V W X Y Z