Scar Symmetry - Ghost Prototype Ii tab

Really liked this song so I thought I would try and learn it but I couldn't find a tab 
the sounded quite right, so I decided to sit down and work it out on my own. Sorry if 
anything is wrong this is my first tab I am open to suggestions at ckerschbaum@hotmail.co.uk



e|------------------------------------------------------------------|
b|------------------------------------------------------------------|
g|------------------------------------------------------------------|
d|-------------------------------------------------/13--11--9--9--13|
a|-/11--9-9------------------------6h7p6/4/2/4/6--------------------|
E|------------11--9/7/9--9/7/6h7------------------------------------|



e|------------------------------------------------------------------|
b|------------------------------------------------------------------|
g|-11--11h13p11--15--16--18--20b(21)--18----------------------------|
d|------------------------------------------------------------------|
a|------------------------------------------------------------------|
E|------------------------------------------------------------------|
Tap to rate this tab
 
# A B C D E F G H I J K L M N O P Q R S T U V W X Y Z