Song name
# A B C D E F G H I J K L M N O P Q R S T U V W X Y Z

Scar The Martyr - Coat Of Arms tab

This is done by ear and have been listening to do the rest of the song once i have 
figured it out. let us know if you think the tab maybe wrong. also check out my band 
Methodemic as i write the music for us.
By Reece Lloyd


Scar The Martyr- Coat Of Arms
Intro and Verse
Tuning CGCFAD

DRUM INTRO

INTRO GUITAR 1
D|----------------------------------------------------------------------|
A|----------------------------------------------------------------------|
F|----------------------------------------------------------------------|
C|--------------------------7s-5-3s-5--------------------------7s-5-3s-5|
G|--------------------------5s-3-1s-3--------------------------5s-3-1s-3|
C|00--00--00--00--0-00000000---------00--00--00--00--0-00000000---------|

GUITAR 1

D|----------------------------------------------------------------------|
A|----------------------------------------------------------------------|
F|----------------------------------------------------------------------|
C|--------------------------7s-5-3s-5--------------------------7s-5-3s-5|
G|--------------------------5s-3-1s-3--------------------------5s-3-1s-3|
C|00--00--00--00--0-00000000---------00--00--00--00--0-00000000---------|

OVER TOP OF THE THIRD AND FOURTH TIME IN GUITAR TWO PLAYS
Guitar 2
                                                                 x2
D|-----------------------------------------------------------|---------|
A|-----------------------------------------------------------|---------|
F|-----------------------------------------------------------|---------|
C|-------------------------7s-5-3s-5-------------------------|7s-5-3s-5|
G|-------------------------5s-3-1s-3-------------------------|5s-3-1s-3|
C|0-0-0-0-0-0-0-0-0-0-0-0-0---------0-0-0-0-0-0-0-0-0-0-0-0-0|---------|

Guitar 1 and 2 Verse
D|----------------------------------------------------------------------|
A|----------------------------------------------------------------------|
F|----------------------------------------------------------------------|
C|--------------------------7s-5-3s-5--------------------------7s-5-3s-5|
G|--------------------------5s-3-1s-3--------------------------5s-3-1s-3|
C|00--00--00--00--0-00000000---------00--00--00--00--0-00000000---------|

Guitar 1 and 2                                                     x2
D|-------------------------------------------------------------|---------|
A|-------------------------------------------------------------|---------|
F|-------------------------------------------------------------|---------|
C|--------------------------7s-5-3s-5--------------------------|7s-5-3s-5|
G|--------------------------5s-3-1s-3--------------------------|5s-3-1s-3|
C|00--00--00--00--0-00000000---------00--00--00--00--0-00000000|---------|

Thats all i know so far. please rate and tell us if you think something is wrong and i 
will change it Thanks
Tap to rate this tab
# A B C D E F G H I J K L M N O P Q R S T U V W X Y Z