Song name
# A B C D E F G H I J K L M N O P Q R S T U V W X Y Z

Scar Thee Armada - Insecure Mortality tab

-------------------------------------------------------------------------------
			     Insecure Mortality - Scar Thee Armada
-------------------------------------------------------------------------------
Tabbed by:Manuel Balderama
Email:scartheearmada@gmail.com

Band Website: www.myspace.com/scartheearmada09

Tuning:Standard (EADGBe)

Gtr 1-(clean electric)
Gtr 2-clean acoustic
Gtr 3-distortion electric

Intro

Gtr 1
e|---------------------------------------------------------------------------|
B|----1-0---1-3-1-----0-----1------------------------------------------------|
G|---2-----0---------1-1---2-2-----------------------------------------------|
D|--2-----2---------0-----3--------------------------------------------------|
A|-0-----3---------2-----3---------------------------------------------------|(x4)
E|----------------3-----1----------------------------------------------------|

Gtr 2
e|-----------1---------------------------------------------------------------|
B|-1---1--0--1---------------------------------------------------------------|
G|-2---0--1--2---------------------------------------------------------------|
D|-2---2--0--3---------------------------------------------------------------|(x2)
A|-0---3--2--3---------------------------------------------------------------|
E|--------3--1---------------------------------------------------------------|

verse
gtr 1&2
...xxxxxxxxxxx... (strumming more than once for each chord)
e|-----------1---------------------------------------------------------------|
B|-1---1--0--1---------------------------------------------------------------|
G|-2---0--1--2---------------------------------------------------------------|
D|-2---2--0--3---------------------------------------------------------------|(x4)
A|-0---3--2--3---------------------------------------------------------------|
E|--------3--1---------------------------------------------------------------|

Post Chorus
gtr 1
e|---------------------------------------------------------------------------|
B|---------------------------------------------------------------------------|
G|---------------------------------------------------------------------------|
D|-77777777-55555555-33333333-22222222---------------------------------------|(x2)
A|-77777777-55555555-33333333-22222222---------------------------------------|
E|-55555555-33333333-11111111-00000000---------------------------------------|

Chorus

gtr 3

let last note ring
e|---------------------------------------------------------------------------|
B|---------------------------------------------------------------------------|
G|---------------------------------------------------------------------------|
D|-77777-55555-33333-22222---2-----------------------------------------------|
A|-77777-55555-33333-22222---2-----------------------------------------------|
E|-55555-33333-11111-00000---0-----------------------------------------------|

Gtr 1
e|---------------------------------------------------------------------------|
B|----1-0---1-3-1-----0-----1------------------------------------------------|
G|---2-----0---------1-1---2-2-----------------------------------------------|
D|--2-----2---------0-----3--------------------------------------------------|
A|-0-----3---------2-----3---------------------------------------------------|(x1)
E|----------------3-----1----------------------------------------------------|

 Repeat verse and post chorus and chorus


SOLO
Gtr 3
e|---------------------------------------------------------------------------|
B|---------------------------------------------------------------------------|
G|--5-5-5-7-5-7-5-7br9-7-5-5\4-4-4-7-4-5--4h5-4-4----------------------------|(x2)
D|---------------------------------------------------------------------------|
A|---------------------------------------------------------------------------|
E|---------------------------------------------------------------------------|

e|---------------------------------------------------------------------------|
B|---------------------------------------------------------------------------|
G|--5-5-5-7-5-7-5-7b9-9b11-12b14-9b11-7-5-4-7-4-5-4-4------------------------|(x1)
D|---------------------------------------------------------------------------|
A|---------------------------------------------------------------------------|
E|---------------------------------------------------------------------------|

e|---------------------------------------------------------------------------|
B|---------------------------------------------------------------------------|
G|--5-5-5-7-5-7-5-7br9-7-5-5\4-4-4-7-4-5--4h5-4-4p0--------------------------|(x1)
D|---------------------------------------------------------------------------|
A|---------------------------------------------------------------------------|
E|---------------------------------------------------------------------------|

gtr 2

(strumming each chord)
e|-----------1---------------------------------------------------------------|
B|-1---1--0--1---------------------------------------------------------------|
G|-2---0--1--2---------------------------------------------------------------|
D|-2---2--0--3---------------------------------------------------------------|(x2)
A|-0---3--2--3---------------------------------------------------------------|
E|--------3--1---------------------------------------------------------------|

(Repeat chorus 5 more times)

outro

Gtr 1 (the last chord is a slow sweep or strum whatever you call it)
e|------------------------------0--------------------------------------------|
B|----1-0---1-3-1-----0-----1---1--------------------------------------------|
G|---2-----0---------1-1---2-2--2--------------------------------------------|
D|--2-----2---------0-----3-----2--------------------------------------------|
A|-0-----3---------2-----3------0--------------------------------------------|
E|----------------3-----1-------0--------------------------------------------|

| /  slide up
| \  slide down
| h  hammer-on
| p  pull-off
| ~  vibrato
| +  harmonic
| x  Mute note


This song is copyrighted, proof of protection in this url:

http://myfreecopyright.com/registered_mcn/C2352_2F591_61438

===============================================================================
Tap to rate this tab
 
# A B C D E F G H I J K L M N O P Q R S T U V W X Y Z