Song name
# A B C D E F G H I J K L M N O P Q R S T U V W X Y Z

Scarlet And The Spooky Spiders - Alien In My Head tab

Band : Scarlet And The Spooky Spiders
Song: Alien In My Head
Album: Pop Up Your Eyes And... Thrill!
Tabbed by: Renato Laia

Tunning: EADGBe

Riff 1:
e|-------------------------------------------------------------------|
B|-------------------------------------------------------------------|
G|--4-4-4-4--7-7-7-7-------------------------------------------------|
D|--4-4-4-4--7-7-7-7--5-5-5-5--7-7-7-7-------------------------------|
A|--2-2-2-2--5-5-5-5--5-5-5-5--7-7-7-7-------------------------------|
E|--------------------3-3-3-3--5-5-5-5-------------------------------|

Riff 2:
e|-------------------------------------------------------------------------------|
B|-------------------------------------------------------------------------------|
G|-11-11-11-11-9-9-9-9--11-11-11-11-9-9-9-9--11-11-11-11-9-9-9-9-----------------|
D|-11-11-11-11-9-9-9-9--11-11-11-11-9-9-9-9--11-11-11-11-9-9-9-9-9-9-9-9-9-9-9-9-|
A|-9--9--9--9--7-7-7-7--9--9--9--9--7-7-7-7--9--9--9--9--7-7-7-7-9-9-9-9-9-9-9-9-|
E|---------------------------------------------------------------7-7-7-7-7-7-7-7-|

Riff 3 :
e|----------------------------------------------------|
B|----------------------------------------------------|
G|------------------------6-6-6-6---4-4-4-4-----------|
D|----4-4-4-4---7-7-7-7---6-6-6-6---4-4-4-4-----------|
A|----4-4-4-4---7-7-7-7---4-4-4-4---2-2-2-2-----------|
E|----2-2-2-2---5-5-5-5-------------------------------|

Riff/Bridge after Riff1 and before solo:
e|------------------|
B|------------------|
G|------------------|
D|---9-9-999--------| x3
A|---9-9-999--------|
E|---7-7-777--------|

Solo: (By a solo Guitar)
e|------------------------------------------------------------------------|
B|------------------------------------------------------8-8-8-8-----------|
G|--7-7-7-7-9-9-7-6--7-7-7-7-9-9-7-6--7-7-7-7-9-9-7-6-----------b9--------|
D|------------------------------------------------------------------------|
A|------------------------------------------------------------------------|
E|------------------------------------------------------------------------|

e|--------6h7--6---------------6h7--6---------------6h7--6-7-10--9-10-b12--|
B|--7-7-8--------8-7-----7-7-8--------8-7-----7-7-8------------------------|
G|-------------------------------------------------------------------------|
D|-------------------------------------------------------------------------|
A|-------------------------------------------------------------------------|
E|-------------------------------------------------------------------------|


Sequence:
Riff 1  x6
Riff 2  x2
Riff 1  x6
Riff 3  x2
Riff 1  x4
Riff 2  x2
Solo    x1  with main guitar or bass playing Riff 1  x4
Riff 1  x4


http://www.myspace.com/scarletandthespookyspider
Tap to rate this tab
 
# A B C D E F G H I J K L M N O P Q R S T U V W X Y Z