Song name
# A B C D E F G H I J K L M N O P Q R S T U V W X Y Z

Scarlet - Riot Girl tab

Main Guitar Riff

G|--------777--------7777-------777---9-9999999--|
D|---7-77-777--7-777-7777--7-77-777---9-9999999--|
A|---7-77-555--7-777-5555--7-77-555---7-7777777--|
E|---5-55------5-555-------5-55------------------|


Chorus

G|---11-11-111111--7-77-777-----------9-99-999--|
D|---11-11-111111--7-77-777--7-7-777--9-99-999--|
A|---9--9--9-9-9---5-55-555--7-7-777--7-77-777--|
E|---------------------------5-5-555------------|

G|---11-11-111111--7-77-777-----------6-66-666--|
D|---11-11-111111--7-77-777--7-7-777--6-66-666--|
A|---9--9--9-9-9---5-55-555--7-7-777--4-44-444--|
E|---------------------------5-5-555------------|

Tap to rate this tab
 
# A B C D E F G H I J K L M N O P Q R S T U V W X Y Z