Song name
# A B C D E F G H I J K L M N O P Q R S T U V W X Y Z

Scarling - Broken Record tab

e |-------------------------------|
B |-------------------------------|
G |-------------------------------|
D |-----3-----3-------3---3---3---|
A |-5-5---5-5---5-5-5---5---5-----|
E |-------------------------------|

e |-------------------------------|
B |-------------------------------|
G |-------------------------------|
D |-----3-----3-------3---3---3---|
A |-4-4---4-4---4-4-4---4---4-----|
E |-------------------------------|

I'm not so sure about the rest, but this is 100% correct, I'm sure.
Tap to rate this tab
# A B C D E F G H I J K L M N O P Q R S T U V W X Y Z