Song name
# A B C D E F G H I J K L M N O P Q R S T U V W X Y Z

Scars Of Life - Purity tab

This is all my work. Did it by ear.
Sounds right to me, but I'm not so
sure about the 1h3p1 but it sounds okay.
Find the timing on your own. Enjoy.

Guitar 1: CGCFAD [Dist.]
Guitar 2: CGCFAD [Dist.]

Guitar 1
D|----------------------------------------|
A|----------------------------------------|
F|----------------------------------------|
C|0-1-------0-1-------0-1-------0-1-------|
G|0-1-1h3p1-0-1-1h3p1-0-1-1h3p1-0-1-1h3p1-|
C|----------------------------------------|
   Let the one on C ring out

------------------------------------------------------

Guitar 2
D|----------------------------------------|
A|----------------------------------------|
F|----------------------------------------|Play this 5 times.
C|--------------------1-0-----------------|
G|--------------------1-0-----------------|
C|0-0--0--0-0-0--0--0---------------------|

Guitar 1
D|----------------------------------------|
A|----------------------------------------|
F|----------------------------------------|
C|0-1-------0-----------------------------|Play this only once.
G|0-1-1h3p1-0-----------------------------|
C|----------------------------------------|

----------------------------------------------------

Guitar 1
D|----------------------------------------|
A|----------------------------------------|
F|----------------------------------------|Play this 4 times.
C|--------------------1-0-----------------|
G|--------------------1-0-----------------|
C|0-0--0--0-0-0--0--0---------------------|

Guitar2
D|----------------------------------------|
A|----------------------------------------|
F|----------------------------------------|
C|0---1-----------------0-----------------|Play this 4 times.
G|0---1---1h3p1---------0-----------------|
C|----------------------------------------|

This timing isn't placed well but listen to it and you'll get it.
Tap to rate this tab
# A B C D E F G H I J K L M N O P Q R S T U V W X Y Z