Guitaretab - guitar tabs
Song name
# A B C D E F G H I J K L M N O P Q R S T U V W X Y Z

Scars Of Life - Broken Bond tab

Scars of Life: Broken Bond

Tuning: C G C F A D (Drop C)

pm: palm mute
*: harmonic

Intro/Verse (Clean)
TIME CODE: (0:00 - 0:46)
D|------------------------|
A|------------------------|
F|------------------------|
C|--011033----------|
G|------------------------|
C|--011033----3-----|

************************************************************************
* From the start you always had your doubts about me                   *
* I never ment to get in the way of what made you happy                *
* and when your marriage failed you pointed your finger at me and wept *
* you always saw me as a threat to you... I am                         *
************************************************************************

Pre-Chorus (Distortion)
TIME CODE: (0:47 - 1:05)
D|---------------------------------|
A|---------------------------------|
F|---------------------------------|
C|---------------------------------|
G|-5--------------5----------------|
C|5000000-0000005000000-00000----|
   pm...pm...pm...pm...pm...pm. 

**********************************************
* MINE - the memories that you gave to me    *
* TIME - the years I watch you waste away    *
* KILL - I want to remove the shit I've seen *
* This bond you break, Its killing me        *
**********************************************

Chorus (Distortion)
TIME CODE: (1:06 - 1:24)
D|-----------------------------------------------|
A|-----------------------------------------------|
F|--------9-10-10-10-10-10-----------------------|
C|---0----x--x--x--x--x--x--------8-8-10-10-10---|
G|---0----7--8-8-8-8-8--------8-8-10-10-10---|
C|---0----------------------------8-8-10-10-10---|

D|--------------------------------------------------|
A|--------------------------------------------------|
F|--------9-10-10-10-10-10--------------------------|
C|---0----x--x--x--x--x--x--------3-3-5-5-5---------|
G|---0----7--8-8-8-8-8--------3-3-5-5-5---------|
C|---0----------------------------3-3-5-5-5---------|

******************************************
* I've never wanted you to give up on me *
* I cant breathe, I cant see             *
* why you choose this life over me       *
******************************************

Intro/Verse (Clean)
TIME CODE: (1:25 - 2:10)
D|------------------------|
A|------------------------|
F|------------------------|
C|--011033----------|
G|------------------------|
C|--0-1-1-0-3-3-----3-----|

*******************************************************************
* She used to tell you lies to make you wanna hate me             *
* With all the tears I've shead you turn your back upon me        *
* I can't remember when the phone had your voice on the other end *
* you always saw me as a threat to you.. I am                     *
*******************************************************************

Pre-Chorus (Distortion)
TIME CODE: (2:11 - 2:30)
D|---------------------------------|
A|---------------------------------|
F|---------------------------------|
C|---------------------------------|
G|-5--------------5----------------|
C|5000000-0000005000000-00000----|
   pm...pm...pm...pm...pm...pm. 

**********************************************
* MINE - the memories that you gave to me    *
* TIME - the years I watch you waste away    *
* KILL - I want to remove the shit I've seen *
* This bond you break, Its killing me        *
**********************************************
[ Tab from: http://www.guitaretab.com/s/scars-of-life/60280.html ]
Chorus (Distortion)
TIME CODE: (2:31 - 2:49)
D|-----------------------------------------------|
A|-----------------------------------------------|
F|--------9-10-10-10-10-10-----------------------|
C|---0----x--x--x--x--x--x--------8-8-10-10-10---|
G|---0----7--8-8-8-8-8--------8-8-10-10-10---|
C|---0----------------------------8-8-10-10-10---|

D|--------------------------------------------------|
A|--------------------------------------------------|
F|--------9-10-10-10-10-10--------------------------|
C|---0----x--x--x--x--x--x--------3-3-5-5-5---------|
G|---0----7--8-8-8-8-8--------3-3-5-5-5---------|
C|---0----------------------------3-3-5-5-5---------|

******************************************
* I've never wanted you to give up on me *
* I can't breathe, I can't see           *
* why you choose this life over me       *
******************************************

Bridge (Distortion) 
TIME CODE: (2:50 - 3:07)
D|-----------------------------------------|
A|-----------------------------------------|
F|-----------------------------------------|
C|---3h5-7-7h0-000------3h5-7-7h333---111--|
G|---3h5-7-7h0-000------3h5-7-7h333---111--|
C|---3h5-7-7h0-000------3h5-7-7h333---111--|
     pm...pm...pm.      pm...pm...pm...pm

************************************************
* I've never heard the words from your mouth.. *
************************************************

Bidge 2 (Distorion) 
TIME CODE: (3:08-3:26)
D|------------------------------|
A|------------------------------|
F|------------7*----------------|
C|---0---------7*---------------|
G|---0----------------33-------|
C|---0---------------33--------|

Bridge 3 (Distortion) 
TIME CODE: (3:27-3:31)
D|-----------------------------------|
A|-----------------------------------|
F|-----------------------------------|
C|-----------------------------------|
G|-5--------------5-----------65-----|
C|5000000-0000005000000-000-65-----|
   pm...pm...pm...pm...pm...pm..

Pre-Chorus (Distortion)
TIME CODE: (3:32 - 4:09)
D|---------------------------------|
A|---------------------------------|
F|---------------------------------|
C|---------------------------------|
G|-5--------------5----------------|
C|5000000-0000005000000-00000----|
   pm...pm...pm...pm...pm...pm.

**********************************************
* MINE - the memories that you gave to me    *
* TIME - the years I watch you waste away    * x2
* KILL - I want to remove the shit I've seen *
* This bond you break, Its killing me        *
**********************************************

Chorus (Distortion)
TIME CODE: (4:10 - 4:27)
D|-----------------------------------------------|
A|-----------------------------------------------|
F|--------9-10-10-10-10-10-----------------------|
C|---0----x--x--x--x--x--x--------8-8-10-10-10---|
G|---0----7--8-8-8-8-8--------8-8-10-10-10---|
C|---0----------------------------8-8-10-10-10---|

D|--------------------------------------------------|
A|--------------------------------------------------|
F|--------9-10-10-10-10-10--------------------------|
C|---0----x--x--x--x--x--x--------3-3-5-5-5---------|
G|---0----7--8-8-8-8-8--------3-3-5-5-5---------|
C|---0----------------------------3-3-5-5-5---------|

******************************************
* I've never wanted you to give up on me *
* I can't breathe, I can't see           *
* why you choose this life over me       *
******************************************

Bridge (Distortion) 
TIME CODE: (4:28 - 4:53)
D|-----------------------------------------|
A|-----------------------------------------|
F|-----------------------------------------|
C|---3h5-7-7h0-000------3h5-7-7h333---111--|
G|---3h5-7-7h0-000------3h5-7-7h333---111--|
C|---3h5-7-7h0-000------3h5-7-7h333---111--|
     pm...pm...pm.      pm...pm...pm...pm

************************************************
* I've never heard the words from your mouth.. *
************************************************

Any questions or comments email me at deathshadow519@hotmail.com
Related for Broken Bond tab