Song name
# A B C D E F G H I J K L M N O P Q R S T U V W X Y Z

Scars On Broadway - Whore Street tab

==========================================================================================
                       Scars on Broadway - Whoring Streets
==========================================================================================
Tabbed by : Zurborg, Marvin
email : cyborgdestroyer@web.de

Tuning : C#G#C#f#a#d#

This is the official Album Version

Intro: clean
|------------------------------------------------------------------------------|1X
|------------------------------------------------------------------------------|
|------------------------------------------------------------------------------|
|-----0---------0----------3-------3----------7--------7----------8-------8----|
|---0----0-------0-0---------3------3-----------7-------7--7--------8------8-8-|
|-0-----------0---0---3----------3---3/5/7----------7----7---8----------8---8--|

|------------------------------------------------------------------------------|4X
|------------------------------------------------------------------------------|
|------------------------------------------------------------------------------|
|------0--------0----------3-------3----------7--------7----------8-------8----|
|--------0-------0-0---------3------3-----------7-------7--7--------8------8-8-|
|-0-----------0---0---3----------3---3/5/7----------7----7---8----------8---8--|




Chorus: dis
|------------------------------------------------------------------|6X until Solo
|-3-3---5--6-------------------------------------------------------|2X as Solo backing
|-2-2---4--5----5-5--5-5-5--5-5--9-9--9-9-9--9-9--1010-101010-1010-|
|-0-0~~~~~~~~~--3-3--3-3-3--3-3--7-7--7-7-7--7-7--8-8--8-8-8--8-8--|
|-0-0~~~~~~~~~--3-3--3-3-3--3-3--7-7--7-7-7--7-7--8-8--8-8-8--8-8--|
|-0-0~~~~~~~~~--3-3--3-3-3--3-3--7-7--7-7-7--7-7--8-8--8-8-8--8-8--|




Solo: slightly dis
|--8----6----5-----5b6--535---5b6--535--|2X
|---------------------------------------|
|---------------------------------------|
|---------------------------------------|
|---------------------------------------|
|---------------------------------------|



Outro: clean
|------------------------------------------------------------------------------|
|------------------------------------------------------------------------------|
|------------------------------------------------------------------------------|
|-----0---------0----------3-------3----------7--------7----------8-------8----|
|---0----0-------0-0---------3------3-----------7-------7--7--------8------8-8-|
|-0-----------0---0---3----------3---3/5/7----------7----7---8----------8---8--|

|------|
|------|
|------|
|---0--|
|--0---|
|-0----|
Tap to rate this tab
# A B C D E F G H I J K L M N O P Q R S T U V W X Y Z