Song name
# A B C D E F G H I J K L M N O P Q R S T U V W X Y Z

Scars On Broadway - I Like Suicide tab

              I Like Suicide                 


                            Scars on Broadway
by Michel Franceschino


Guitar 1 Melodie
      Q    Q    Q    E  E   
D#||-----------------------|
A#||-----------------------|
F#||-----------------------|
C#||--------------------8--|
G#||-----------------------|
C#||-----------------------|


  Q    Q    Q    E  E   
-----------------------|
-----------------------|
-----------------------|
--L----L----L----8--6--|
-----------------------|
-----------------------|


  E  E  E  E  E  E  E  E   
--------------------------|
--------------------------|
-----6--------------------|
--8-----8--6--8--6--------|
--------------------8--6--|
--------------------------|


  E  E  E  E  H         
-----------------------|
-----------------------|
-----------------------|
-----6-----------------|
--8-----8--L--L--------|
-----------------------|


  Q    Q    Q    E  E   
-----------------------|
-----------------------|
-----------------------|
--------------------8--|
-----------------------|
-----------------------|


  Q    Q    Q    E  E   
-----------------------|
-----------------------|
-----------------------|
--L----L----L----8--6--|
-----------------------|
-----------------------|


  E  E  E  E  E  E  E  E   
--------------------------|
--------------------------|
-----6--------------------|
--8-----8--6--8--6--------|
--------------------8--6--|
--------------------------|


  E  E  E  E  H         
-----------------------|
-----------------------|
-----------------------|
-----6-----------------|
--8-----8--L--L--------|
-----------------------|


Intro Guitar 2
      E  E  E  E  E  E  E  E   
D#||--------------------------|
A#||--------------------------|
F#||--------------------------|
C#||--8--8--8--8--8--8--8--8--|
G#||--8--8--8--8--8--8--8--8--|
C#||--8--8--8--8--8--8--8--8--|


  E  E  E  E  E  E  E  E   
--------------------------|
--------------------------|
--------------------------|
--8--8--8--8--8--8--8--8--|
--8--8--8--8--8--8--8--8--|
--8--8--8--8--8--8--8--8--|


  E  E  E  E  E  E  E  E   
--------------------------|
--------------------------|
--------------------------|
--8--8--8--8--8--8--8--8--|
--8--8--8--8--8--8--8--8--|
--8--8--8--8--8--8--8--8--|


  E  E  E  E  E  E  E  E   
--------------------------|
--------------------------|
--------------------------|
--8--8--8--8--8--8--8--8--|
--8--8--8--8--8--8--8--8--|
--8--8--8--8--8--8--8--8--|


  E  E  E  E  E  E  E  E   
--------------------------|
--------------------------|
--------------------------|
--8--8--8--8--8--8--8--8--|
--8--8--8--8--8--8--8--8--|
--8--8--8--8--8--8--8--8--|


  E  E  E  E  E  E  E  E   
--------------------------|
--------------------------|
--------------------------|
--8--8--8--8--8--8--8--8--|
--8--8--8--8--8--8--8--8--|
--8--8--8--8--8--8--8--8--|


  E  E  E  E  E  E  E  E   
--------------------------|
--------------------------|
--------------------------|
--8--8--8--8--8--8--8--8--|
--8--8--8--8--8--8--8--8--|
--8--8--8--8--8--8--8--8--|


  E  E  E  E   E   E   E   E   
------------------------------|
------------------------------|
------------------------------|
--8--8--8--8--14--14--14--14--|
--8--8--8--8--14--14--14--14--|
--8--8--8--8--14--14--14--14--|


Both Guitars

    E  E  E  E  E  E  E  E   
|---------------------------|
|---------------------------|
|*--------------------------|
|*--8--8--8--8--8--8--8--8--|
|---8--8--8--8--8--8--8--8--|
|---8--8--8--8--8--8--8--8--|


  E  E  E  E  E  E  E  E   
--------------------------|
--------------------------|
--------------------------|
--8--8--8--8--8--8--8--8--|
--8--8--8--8--8--8--8--8--|
--8--8--8--8--8--8--8--8--|


  E  E  E  E  E  E  E  E   
--------------------------|
--------------------------|
--------------------------|
--8--8--8--8--8--8--8--8--|
--8--8--8--8--8--8--8--8--|
--8--8--8--8--8--8--8--8--|


  E  E  E   E   E   E   E   E   4x
--------------------------------||
--------------------------------||
-------------------------------*||
--8--8--8--14--14--14--14--14--*||
--8--8--8--14--14--14--14--14---||
--8--8--8--14--14--14--14--14---||


  E  E  E  E  E  E  E  E   
--------------------------|
--------------------------|
--------------------------|
--7--7--7--7--7--7--7--7--|
--7--7--7--7--7--7--7--7--|
--7--7--7--7--7--7--7--7--|


  E  E  E  E  E  E  E  E   
--------------------------|
--------------------------|
--------------------------|
--8--8--8--8--8--8--8--8--|
--8--8--8--8--8--8--8--8--|
--8--8--8--8--8--8--8--8--|


   E   E   E   E   E   E   E   E   
----------------------------------|
----------------------------------|
----------------------------------|
--12--12--12--12--12--12--12--12--|
--12--12--12--12--12--12--12--12--|
--12--12--12--12--12--12--12--12--|


   E   E   E   E   E   E   E   E   
----------------------------------|
----------------------------------|
----------------------------------|
--12--12--12--12--12--12--12--12--|
--12--12--12--12--12--12--12--12--|
--12--12--12--12--12--12--12--12--|


  E  E  E  E  E  E  E  E   
--------------------------|
--------------------------|
--------------------------|
--7--7--7--7--7--7--7--7--|
--7--7--7--7--7--7--7--7--|
--7--7--7--7--7--7--7--7--|


   E   E   E   E   E   E   E   E   
----------------------------------|
----------------------------------|
----------------------------------|
--15--15--15--15--15--15--15--15--|
--15--15--15--15--15--15--15--15--|
--15--15--15--15--15--15--15--15--|


   E   E   E   E   E   E   E   E   
----------------------------------|
----------------------------------|
----------------------------------|
--12--12--12--12--12--12--12--12--|
--12--12--12--12--12--12--12--12--|
--12--12--12--12--12--12--12--12--|


   E   E   E   E   E   E   E   E   
----------------------------------|
----------------------------------|
----------------------------------|
--12--12--12--12--12--12--12--12--|
--12--12--12--12--12--12--12--12--|
--12--12--12--12--12--12--12--12--|


  E  E  E  E  E  E  E  E   
--------------------------|
--------------------------|
--------------------------|
--7--7--7--7--7--7--7--7--|
--7--7--7--7--7--7--7--7--|
--7--7--7--7--7--7--7--7--|


  E  E  E  E  E  E  E  E   
--------------------------|
--------------------------|
--------------------------|
--8--8--8--8--8--8--8--8--|
--8--8--8--8--8--8--8--8--|
--8--8--8--8--8--8--8--8--|


   E   E   E   E   E   E   E   E   
----------------------------------|
----------------------------------|
----------------------------------|
--12--12--12--12--12--12--12--12--|
--12--12--12--12--12--12--12--12--|
--12--12--12--12--12--12--12--12--|


   E   E   E   E   E   E   E   E   
----------------------------------|
----------------------------------|
----------------------------------|
--12--12--12--12--12--12--12--12--|
--12--12--12--12--12--12--12--12--|
--12--12--12--12--12--12--12--12--|


  E  E  E  E  E  E  E  E   
--------------------------|
--------------------------|
--------------------------|
--8--8--8--8--8--8--8--8--|
--8--8--8--8--8--8--8--8--|
--8--8--8--8--8--8--8--8--|


  E  E  E  E  E  E  E  E   
--------------------------|
--------------------------|
--------------------------|
--8--8--8--8--8--8--8--8--|
--8--8--8--8--8--8--8--8--|
--8--8--8--8--8--8--8--8--|


  E  E  E  E  E  E  E  E   
--------------------------|
--------------------------|
--------------------------|
--8--8--8--8--8--8--8--8--|
--8--8--8--8--8--8--8--8--|
--8--8--8--8--8--8--8--8--|


  E  E  E  E  E  E  E  E   
--------------------------|
--------------------------|
--------------------------|
--8--8--8--8--8--8--8--8--|
--8--8--8--8--8--8--8--8--|
--8--8--8--8--8--8--8--8--|


  E  E  E  E  E  E  E  E   
--------------------------|
--------------------------|
--------------------------|
--8--8--8--8--8--8--8--8--|
--8--8--8--8--8--8--8--8--|
--8--8--8--8--8--8--8--8--|


  E  E  E  E  E  E  E  E   
--------------------------|
--------------------------|
--------------------------|
--8--8--8--8--8--8--8--8--|
--8--8--8--8--8--8--8--8--|
--8--8--8--8--8--8--8--8--|


  E  E  E  E  E  E  E  E   
--------------------------|
--------------------------|
--------------------------|
--8--8--8--8--8--8--8--8--|
--8--8--8--8--8--8--8--8--|
--8--8--8--8--8--8--8--8--|


  E  E  E  E   E   E   E   E   
------------------------------|
------------------------------|
------------------------------|
--8--8--8--8--14--14--14--14--|
--8--8--8--8--14--14--14--14--|
--8--8--8--8--14--14--14--14--|


    E  E  E  E  E  E  E  E   
|---------------------------|
|---------------------------|
|*--------------------------|
|*--8--8--8--8--8--8--8--8--|
|---8--8--8--8--8--8--8--8--|
|---8--8--8--8--8--8--8--8--|


  E  E  E  E  E  E  E  E   
--------------------------|
--------------------------|
--------------------------|
--8--8--8--8--8--8--8--8--|
--8--8--8--8--8--8--8--8--|
--8--8--8--8--8--8--8--8--|


  E  E  E  E  E  E  E  E   
--------------------------|
--------------------------|
--------------------------|
--8--8--8--8--8--8--8--8--|
--8--8--8--8--8--8--8--8--|
--8--8--8--8--8--8--8--8--|


  E  E  E   E   E   E   E   E   4x
--------------------------------||
--------------------------------||
-------------------------------*||
--8--8--8--14--14--14--14--14--*||
--8--8--8--14--14--14--14--14---||
--8--8--8--14--14--14--14--14---||


  E  E  E  E  E  E  E  E   
--------------------------|
--------------------------|
--------------------------|
--7--7--7--7--7--7--7--7--|
--7--7--7--7--7--7--7--7--|
--7--7--7--7--7--7--7--7--|


  E  E  E  E  E  E  E  E   
--------------------------|
--------------------------|
--------------------------|
--8--8--8--8--8--8--8--8--|
--8--8--8--8--8--8--8--8--|
--8--8--8--8--8--8--8--8--|


   E   E   E   E   E   E   E   E   
----------------------------------|
----------------------------------|
----------------------------------|
--12--12--12--12--12--12--12--12--|
--12--12--12--12--12--12--12--12--|
--12--12--12--12--12--12--12--12--|


   E   E   E   E   E   E   E   E   
----------------------------------|
----------------------------------|
----------------------------------|
--12--12--12--12--12--12--12--12--|
--12--12--12--12--12--12--12--12--|
--12--12--12--12--12--12--12--12--|


  E  E  E  E  E  E  E  E   
--------------------------|
--------------------------|
--------------------------|
--7--7--7--7--7--7--7--7--|
--7--7--7--7--7--7--7--7--|
--7--7--7--7--7--7--7--7--|


   E   E   E   E   E   E   E   E   
----------------------------------|
----------------------------------|
----------------------------------|
--15--15--15--15--15--15--15--15--|
--15--15--15--15--15--15--15--15--|
--15--15--15--15--15--15--15--15--|


   E   E   E   E   E   E   E   E   
----------------------------------|
----------------------------------|
----------------------------------|
--12--12--12--12--12--12--12--12--|
--12--12--12--12--12--12--12--12--|
--12--12--12--12--12--12--12--12--|


   E   E   E   E   E   E   E   E   
----------------------------------|
----------------------------------|
----------------------------------|
--12--12--12--12--12--12--12--12--|
--12--12--12--12--12--12--12--12--|
--12--12--12--12--12--12--12--12--|


  E  E  E  E  E  E  E  E   
--------------------------|
--------------------------|
--------------------------|
--7--7--7--7--7--7--7--7--|
--7--7--7--7--7--7--7--7--|
--7--7--7--7--7--7--7--7--|


  E  E  E  E  E  E  E  E   
--------------------------|
--------------------------|
--------------------------|
--8--8--8--8--8--8--8--8--|
--8--8--8--8--8--8--8--8--|
--8--8--8--8--8--8--8--8--|


   E   E   E   E   E   E   E   E   
----------------------------------|
----------------------------------|
----------------------------------|
--12--12--12--12--12--12--12--12--|
--12--12--12--12--12--12--12--12--|
--12--12--12--12--12--12--12--12--|


   E   E   E   E   E   E   E   E   
----------------------------------|
----------------------------------|
----------------------------------|
--12--12--12--12--12--12--12--12--|
--12--12--12--12--12--12--12--12--|
--12--12--12--12--12--12--12--12--|

Bridge Guitar 1 Melodie

    Q     Q    Q    E  E   
|-------------------------|
|-------------------------|
|*------------------------|
|*------------------------|
|---1~----L----L----L--L--|
|-------------------------|


  Q    Q    Q    E  E   
-----------------------|
-----------------------|
-----------------------|
--8----L----L----8--6--|
-----------------------|
-----------------------|


  E  E  E  E  E  E  E  E   
--------------------------|
--------------------------|
-----6--------------------|
--8-----8--6--8--6--------|
--------------------8--6--|
--------------------------|


  E  E  E  E  H         
-----------------------|
-----------------------|
-----------------------|
-----6-----------------|
--8-----8--L--L--------|
-----------------------|


  Q     Q    Q    E  E   
------------------------|
------------------------|
------------------------|
------------------------|
--0~----L----L----L--L--|
------------------------|


  Q    Q    Q    E  E   
-----------------------|
-----------------------|
-----------------------|
--7----L----L----7--5--|
-----------------------|
-----------------------|


  E  E  E  E  E  E  E  E   
--------------------------|
--------------------------|
-----5--------------------|
--7-----7--5--7--5--------|
--------------------7--5--|
--------------------------|


Bridge Guitar 2

    E  E  E  E  E  E  E  E   
|---------------------------|
|---------------------------|
|*--------------------------|
|*--------------------------|
|---8--8--8--8--8--8--8-----|
|---8--8--8--8--8--8--8-----|


  E  E  E  E  E  E  E  E   
--------------------------|
--------------------------|
--------------------------|
--------------------------|
--8--8--8--8--8--8--8-----|
--8--8--8--8--8--8--8-----|


  E  E  E  E  E  E  E  E   
--------------------------|
--------------------------|
--------------------------|
--------------------------|
--8--8--8--8--8--8--8-----|
--8--8--8--8--8--8--8-----|


  E  E  E  E  E  E  E  E   
--------------------------|
--------------------------|
--------------------------|
--------------------------|
--8--8--8--8--8--8--8-----|
--8--8--8--8--8--8--8-----|


  E  E  E  E  E  E  E  E   
--------------------------|
--------------------------|
--------------------------|
--------------------------|
--0--0--0--0--0--0--0-----|
--0--0--0--0--0--0--0-----|


  E  E  E  E  E  E  E  E   
--------------------------|
--------------------------|
--------------------------|
--------------------------|
--0--0--0--0--0--0--0-----|
--0--0--0--0--0--0--0-----|


  E  E  E  E  E  E  E  E   
--------------------------|
--------------------------|
--------------------------|
--------------------------|
--0--0--0--0--0--0--0-----|
--0--0--0--0--0--0--0-----|


  E  E  E  E  E  E  E  E     
---------------------------||
---------------------------||
--------------------------*||
--------------------------*||
--0--0--0--0--0--0--0------||
--0--0--0--0--0--0--0------||


Both Guitars 

  E  E  E  E  E  E  E  E   
--------------------------|
--------------------------|
--------------------------|
--7--7--7--7--7--7--7--7--|
--7--7--7--7--7--7--7--7--|
--7--7--7--7--7--7--7--7--|


  E  E  E  E  E  E  E  E   
--------------------------|
--------------------------|
--------------------------|
--8--8--8--8--8--8--8--8--|
--8--8--8--8--8--8--8--8--|
--8--8--8--8--8--8--8--8--|


   E   E   E   E   E   E   E   E   
----------------------------------|
----------------------------------|
----------------------------------|
--12--12--12--12--12--12--12--12--|
--12--12--12--12--12--12--12--12--|
--12--12--12--12--12--12--12--12--|


   E   E   E   E   E   E   E   E   
----------------------------------|
----------------------------------|
----------------------------------|
--12--12--12--12--12--12--12--12--|
--12--12--12--12--12--12--12--12--|
--12--12--12--12--12--12--12--12--|


  E  E  E  E  E  E  E  E   
--------------------------|
--------------------------|
--------------------------|
--7--7--7--7--7--7--7--7--|
--7--7--7--7--7--7--7--7--|
--7--7--7--7--7--7--7--7--|


   E   E   E   E   E   E   E   E   
----------------------------------|
----------------------------------|
----------------------------------|
--15--15--15--15--15--15--15--15--|
--15--15--15--15--15--15--15--15--|
--15--15--15--15--15--15--15--15--|


   E   E   E   E   E   E   E   E   
----------------------------------|
----------------------------------|
----------------------------------|
--12--12--12--12--12--12--12--12--|
--12--12--12--12--12--12--12--12--|
--12--12--12--12--12--12--12--12--|


   E   E   E   E   E   E   E   E   
----------------------------------|
----------------------------------|
----------------------------------|
--12--12--12--12--12--12--12--12--|
--12--12--12--12--12--12--12--12--|
--12--12--12--12--12--12--12--12--|


  E  E  E  E  E  E  E  E   
--------------------------|
--------------------------|
--------------------------|
--7--7--7--7--7--7--7--7--|
--7--7--7--7--7--7--7--7--|
--7--7--7--7--7--7--7--7--|


  E  E  E  E  E  E  E  E   
--------------------------|
--------------------------|
--------------------------|
--8--8--8--8--8--8--8--8--|
--8--8--8--8--8--8--8--8--|
--8--8--8--8--8--8--8--8--|


   E   E   E   E   E   E   E   E   
----------------------------------|
----------------------------------|
----------------------------------|
--12--12--12--12--12--12--12--12--|
--12--12--12--12--12--12--12--12--|
--12--12--12--12--12--12--12--12--|


   E   E   E   E   E   E   E   E   
----------------------------------|
----------------------------------|
----------------------------------|
--12--12--12--12--12--12--12--12--|
--12--12--12--12--12--12--12--12--|
--12--12--12--12--12--12--12--12--|


    E  E  E  E  E  E  E  E   
|---------------------------|
|---------------------------|
|*--------------------------|
|*--8--8--8--8--8--8--8--8--|
|---8--8--8--8--8--8--8--8--|
|---8--8--8--8--8--8--8--8--|


  E  E  E  E  E  E  E  E   
--------------------------|
--------------------------|
--------------------------|
--8--8--8--8--8--8--8--8--|
--8--8--8--8--8--8--8--8--|
--8--8--8--8--8--8--8--8--|


  E  E  E  E  E  E  E  E   
--------------------------|
--------------------------|
--------------------------|
--8--8--8--8--8--8--8--8--|
--8--8--8--8--8--8--8--8--|
--8--8--8--8--8--8--8--8--|


  E  E  E   E   E   E   E   E     
--------------------------------||
--------------------------------||
-------------------------------*||
--8--8--8--14--14--14--14--14--*||
--8--8--8--14--14--14--14--14---||
--8--8--8--14--14--14--14--14---||


  E  E  E   E   E   E   E   E          
-------------------------------|-----||
-------------------------------|-----||
-------------------------------|-----||
--8--8--8--14--14--14--14--14--|-----||
--8--8--8--14--14--14--14--14--|-----||
--8--8--8--14--14--14--14--14--|-----||



Tap to rate this tab
# A B C D E F G H I J K L M N O P Q R S T U V W X Y Z