Song name
# A B C D E F G H I J K L M N O P Q R S T U V W X Y Z

Scars On Broadway - Stoner Hate tab

Scars On Broadway-Stoner Hate Tab
By nudude
----------------------------------------------------------------------------------
This Tab Was Made By Pain Stakingly
Going Over The Concert Video Over And
Over.But It Turned Out Perfect.I Would Say
Its 99.99% Correct.Please Rate And Leave Comments
So I Can Know How You Guys Think It Turned Out.
----------------------------------------------------------------------------------
 The Q And S Etc, Are The Note Type (8th,16th,32th,etc) See The Bottom Of The
Tab For The Legend.For The Letters Closest To The Tab Look In The Duration Legend.
And For The Ones Above Those Look In The Tabulature Legend Although I Will Fill You In On
What You Need To Know Through Out The Tab.
.
The Tuning Is Dropped C# (C#,G#,C#,F#,A#,D#)
----------------------------------------------------------------------------------
INTRO/INTERLUDE
  Q    Q    Q    Q       Q    Q     Play Twice
----------------------|-----------------------------------------|
----------------------|-----------------------------------------|
----------------------|-----------------------------------------|
--8---------8---------|--8--------------------------------------|
--8---------8---------|--8--------------------------------------|
--8---------8---------|--8--------------------------------------|

CHORUS
PM is Palm Mute
    PM PM PM PM    PM PM PM PM PM PM   Play Twice
    S S S S E           S S S S S S  E
|--------------------------------------------------------------|
|--------------------------------------------------------------|
|*-------------------------------------------------------------|
|*-------------------------------------------------------------|
|---0--1--0--1--0---------0--1--0--1--0--1--0------------------|
|---0--1--0--1--0---------0--1--0--1--0--1--0------------------|

 PM PM PM PM PM PM PM PM PM PM PM PM PM PM PM PM PM PM
  S  S  S  S  S  S  S  S  S  S  S  S  S  S  S  S  S  S
-------------------------------------------------------------------------------|
-------------------------------------------------------------------------------|
--------------------------------------------------------------------------*----|
--------------------------------------------------------------------------*----|
----0--1--0--1--0--1--0--1--0--1--0--1--0--1--0--1--0--1-----------------------|
----0--1--0--1--0--1--0--1--0--1--0--1--0--1--0--1--0--1-----------------------|

VERSE
   S S S S S S S S S S S S S S S S  Play Twice
-----------------------------------|
-----------------------------------|
*----------------------------------|
*----------------------------------|
---6-7-6-7-6-7-6-7-6-7-6-7-6-7-6-7-|
---6-7-6-7-6-7-6-7-6-7-6-7-6-7-6-7-|


  S  S S  S S  S S  S S  S S  S S  S S  S
-------------------------------------------||
-------------------------------------------||
------------------------------------------*||
------------------------------------------*||
--9-10-9-10-9-10-9-10-9-10-9-10-9-10-9-10--||
--9-10-9-10-9-10-9-10-9-10-9-10-9-10-9-10--||

2ND CHORUS
PM Is Palm Mute
PM PM PM PM    PM PM PM PM PM PM      Play Twice
    S S S S E           S S S S S S  E
|--------------------------------------------------------------|
|--------------------------------------------------------------|
|*-------------------------------------------------------------|
|*-------------------------------------------------------------|
|---0--1--0--1--0---------0--1--0--1--0--1--0------------------|
|---0--1--0--1--0---------0--1--0--1--0--1--0------------------|

 PM PM PM PM PM PM PM PM PM PM PM PM PM PM PM PM PM PM
  S  S  S  S  S  S  S  S  S  S  S  S  S  S  S  S  S  S
-------------------------------------------------------------------------------|
-------------------------------------------------------------------------------|
--------------------------------------------------------------------------*----|
--------------------------------------------------------------------------*----|
----0--1--0--1--0--1--0--1--0--1--0--1--0--1--0--1--0--1-----------------------|
----0--1--0--1--0--1--0--1--0--1--0--1--0--1--0--1--0--1-----------------------|

INTRO/INTERLUDE

  Q    Q    Q    Q       Q    Q     Play Twice
----------------------|------------|
----------------------|------------|
----------------------|------------|
--8---------8---------|--8---------|
--8---------8---------|--8---------|
--8---------8---------|--8---------|


  Q    Q    Q    Q       Q    Q
----------------------|------------|
----------------------|------------|
----------------------|------------|
--8---------8---------|--8---------|
--8---------8---------|--8---------|
--8---------8---------|--8---------|

2ND VERSE
    S S S S S S S S S S S S S S S S  Play Twice
|-----------------------------------|
|-----------------------------------|
|*----------------------------------|
|*----------------------------------|
|---6-7-6-7-6-7-6-7-6-7-6-7-6-7-6-7-|
|---6-7-6-7-6-7-6-7-6-7-6-7-6-7-6-7-|


  S  S S  S S  S S  S S  S S  S S  S S  S
-------------------------------------------||
-------------------------------------------||
------------------------------------------*||
------------------------------------------*||
--9-10-9-10-9-10-9-10-9-10-9-10-9-10-9-10--||
--9-10-9-10-9-10-9-10-9-10-9-10-9-10-9-10--||

3RD CHORUS
PM Is Palm Mute
PM PM PM PM    PM PM PM PM PM PM      Play Twice
    S S S S E           S S S S S S  E
|--------------------------------------------------------------|
|--------------------------------------------------------------|
|*-------------------------------------------------------------|
|*-------------------------------------------------------------|
|---0--1--0--1--0---------0--1--0--1--0--1--0------------------|
|---0--1--0--1--0---------0--1--0--1--0--1--0------------------|

 PM PM PM PM PM PM PM PM PM PM PM PM PM PM PM PM PM PM
  S  S  S  S  S  S  S  S  S  S  S  S  S  S  S  S  S  S
-------------------------------------------------------------------------------|
-------------------------------------------------------------------------------|
--------------------------------------------------------------------------*----|
--------------------------------------------------------------------------*----|
----0--1--0--1--0--1--0--1--0--1--0--1--0--1--0--1--0--1-----------------------|
----0--1--0--1--0--1--0--1--0--1--0--1--0--1--0--1--0--1-----------------------|


 INTRO/INTERLUDE


  Q    Q    Q    Q       Q    Q     Play Twicwe
----------------------|------------|
----------------------|------------|
----------------------|------------|
--8---------8---------|--8---------|
--8---------8---------|--8---------|
--8---------8---------|--8---------|


  Q    Q    Q    Q       Q    Q
----------------------|------------|
----------------------|------------|
----------------------|------------|
--8---------8---------|--8---------|
--8---------8---------|--8---------|
--8---------8---------|--8---------|

BRIDGE
  E  E  E  E  E  E  E  E     E  E  E  E  E  E  Q     Play Twice
--------------------------|-------------------------|
--------------------------|-------------------------|
--4--5--7--5--4--2--4--5--|--4--5--7--5--4--2--4----|
--3--4--6--4--3--1--3--4--|--3--4--6--4--3--1--3----|
--------------------------|-------------------------|
--------------------------|-------------------------|

  E  E  E  E  E  E  E  E     E  E  E  E  E  E  Q     Play Twice
--------------------------|-------------------------|
--------------------------|-------------------------|
--------------------------|-------------------------|
--------------------------|-------------------------|
--4--5--7--5--4--2--4--5--|--4--5--7--5--4--2--4----|
--4--5--7--5--4--2--4--5--|--4--5--7--5--4--2--4----|

4TH VERSE

    S S S S S S S S S S S S S S S S  Play Twice
|-----------------------------------|
|-----------------------------------|
|*----------------------------------|
|*----------------------------------|
|---6-7-6-7-6-7-6-7-6-7-6-7-6-7-6-7-|
|---6-7-6-7-6-7-6-7-6-7-6-7-6-7-6-7-|


  S  S S  S S  S S  S S  S S  S S  S S  S
-------------------------------------------||
-------------------------------------------||
------------------------------------------*||
------------------------------------------*||
--9-10-9-10-9-10-9-10-9-10-9-10-9-10-9-10--||
--9-10-9-10-9-10-9-10-9-10-9-10-9-10-9-10--||

4TH CHORUS
PM Is Palm Mute
  PM PM PM PM    PM PM PM PM PM PM    PM PM  Play once
  S  S  S  S  E  S  S  S  S  S  S  E  S  S
--------------------------------------------|
--------------------------------------------|
--------------------------------------------|
--------------------------------------------|
--0--1--0--1--0--0--1--0--1--0--1--0--0--1--|
--0--1--0--1--0--0--1--0--1--0--1--0--0--1--|


  PM PM PM PM PM PM PM PM PM PM PM PM PM PM PM PM
  S  S  S  S  S  S  S  S  S  S  S  S  S  S  S  S
--------------------------------------------------|
--------------------------------------------------|
--------------------------------------------------|
--------------------------------------------------|
--0--1--0--1--0--1--0--1--0--1--0--1--0--1--0--1--|
--0--1--0--1--0--1--0--1--0--1--0--1--0--1--0--1--|

OUTRO
PM Is Palm Mute
  PM PM PM PM    PM PM PM PM PM PM    PM PM  Play Once
  S  S  S  S  E  S  S  S  S  S  S  E  S  S
--------------------------------------------|
--------------------------------------------|
--------------------------------------------|
--------------------------------------------|
--0--1--0--1--0--0--1--0--1--0--1--0--0--1--|
--0--1--0--1--0--0--1--0--1--0--1--0--0--1--|


  PM PM PM PM PM PM PM PM PM PM
  S  S  S  S  S  S  S  S  S  S  S S Q
-----------------------------------------||
-----------------------------------------||
-----------------------------------------||
-----------------------------------------||
--0--1--0--1--0--1--0--1--0--1--0-1-0----||
--0--1--0--1--0--1--0--1--0--1--0-1-0----||


Duration Legend
---------------
W - whole
H - half
Q - quarter
E - 8th
S - 16th
T - 32nd
X - 64th
. - note dotted
|-n-|  - n-tuplets


Tablature Legend
----------------
L - tied note
x - dead note
g - grace note
(n) - ghost note
> - accentuded note
NH - natural harmonic
AH - artificial harmonic
TH - tapped harmonic
SH - semi harmonic
PH - pitch harmonic
h - hammer on
p - pull off
b - bend
br - bendRelease
pb - preBend
pbr - preBendRelease
brb - bendReleaseBend
\n/ - tremolo bar dip
\n - tremolo bar dive
-/n - tremolo bar Release up
/n\ - tremolo bar inverted dip
/n - tremolo bar return
-\n - tremolo bar Release down
S - shift slide
s - legato slide
/ -  slide into from below or out of upwards
\ -  slide into from above or out of downwards
~ - vibrato
W - wide vibrato
tr - trill
TP - tremolo picking
T - tapping
S - slap
P - pop
< - fade in
^ - brush up
v - brush down
Tap to rate this tab
# A B C D E F G H I J K L M N O P Q R S T U V W X Y Z